» » »

From Me To You Chords (ver.1)

Artists:  A B C D E F G H I J K L M N O P Q R S T U V W X Y Z # 

From Me To You Chords (ver.1)

Beatles
Rating:
0/5 (0 votes)

Hard to play? Try these video lessons and learn fast.
                ------0------------
-1--3---3--1--3-3--
------------------2
-------------------
-------------------
-------------------


------0------5-5-3
-1--3---3--1------
------------------
------------------
------------------
------------------
            
Hard to play? Try these video lessons and learn fast. | Correct




comments powered by Disqus
↑ Back to top | Tablatures and chords are parodies/interpretations of the original songs. You may use it for private study, scholarship, research or language learning purposes only