>
 >
Fixing A Hole 1

Fixing A Hole 1 Guitar Tabs

Beatles - Fixing A Hole 1 chords, tabs, tablatures, lyrics

Guitar lessons | Add/correct | Request | Top 50 tabs Artists:  A B C D E F G H I J K L M N O P Q R S T U V W X Y Z 0-9

Fixing A Hole 1 Guitar Tabs – Beatles

CD, Sheet music, Poster

Do you like Fixing A Hole 1? Share with your friends now
Bass TabsBass Tabs v2ChordsChords v2Chords v3TabsTabs v2Tabs v3
Fixing A Hole by Beatles


Fill
E--8---------------
B--9--9------------
G-----10--10--8\7--
D---------10-------
A------------------
D------------------


Chorus
E----------------------------------------------------
B----------------------------------------------------
G----------------------------------------------------
D----------------5--------------------5--------------
A----------3-5/7-------0h2-/5---3-5/7------0h2-/5----
D--3-2-0------------/5------------------/5-----------

E------------------------------------------------------------
B------------------------------------------------------------
G------------------------------------------------------------
D-------------5-------------------5------------0-2-3-5-5^fbr-
A------3-5/7-------0h2-/5---3-5/7------0h2-/5----------------
D--------------/5-------------------/5-----------------------
              
Guitar Solo
E---5-----4--------4---------------------4-
B---6--/4-------/6-----6---------------6---
G--------------------5-------5------5------
D-------------------------6----3--6--------
A------------------------------------------
D------------------------------------------

E----------------------------------------
B----------------------------------------
G-----1-/5-1-----------------------------
D--1/3--------3--1--0--------------------
A----------------------3--1--------------
D---------------------------6--3--1-1/3--


F    C+    Fm7   (2 beats per chord)

Bb9           F            C+                Fm7        Fm6
          I'm fixing a hole    where the rain   gets in     and
Fm7                   Fm6                       Fm7       Fm6   Fm7   Fm6
stops my mind from wan - dering   where it will    go______


   I'm filling the cracks   that ran   through the door   and
kept my mind from wan - dering where it will go     And it

F                 Gm/C            F          Gm/C
really doesn't matter if I'm wrong I'm right  where I belong
F          Gm/C            F
I'm right   where I belong

C                   G             C            G
See the people standing there who disagree and never win and
C               G               C
wonder why they don't get in my door      I'm

F                 C+          Fm7        Fm6   Fm7
painting the room   in a col - orful way   and when my mind is wan -
Fm6                  Fm7       Fm6    Fm7
dering   there I will go              Oo oo oo ah


Silly people run around who worry me and never ask me
why they don't get past my door      I'm
taking the time to do a number of things that weren't important yes-
terday  and I still go

Bb9 = x10111
C+ = xx2110
Gm/C = x3033x
Fm6 = xx0111
Fm7 = xx1111





Comments


Popular Beatles tabs & chords
Day Tripper 2 Bass Tabs
Day Tripper 6 Bass Tabs
Babys In Black 2 Chords
Cry Baby Cry 2 Chords
Dont Bother Me 2 Chords
Back In The Ussr 3 Tabs
Drive My Car 2 Tabs
Happiness Is 2 Tabs
I Dig A Pony 1 Tabs
I Feel Fine 1 Tabs


Song lyrics



↑ Back to top | Tablatures and chords are parodies/interpretations of the original songs. You may use it for private study, scholarship, research or language learning purposes only
© 2014 AZChords.com Contact us | Privacy policy | DMCA | Add/correct tabs | Request tabs | Top 50 tabs