» » »

Fixing A Hole Bass tabs (ver.1)

Artists:  A B C D E F G H I J K L M N O P Q R S T U V W X Y Z # 

Fixing A Hole Bass tabs (ver.1)

Beatles
Rating:
0/5 (0 votes)

Hard to play? Try these video lessons and learn fast.
                1 & 2 & 3 & 4 & 
G|-----------------|
D|-3---------------|   <--Repeat this 4 Times
A|---------3-------|   
E|-----------------|
"I'm fixing a hole..."

   1 & 2 & 3 & 4 &   1 & 2 & 3 & 4 &   1 & 2 & 3 & 4 &   1 & 2 & 3 & 4 & 
G|-----------------|-----------------|-----------------|-----------------|
D|-3---------3/6---|-----------3/6---|-----------3/6---|-----------3/6---|
A|-------1/3-------|-------3---------|-------3---------|-------3---------|
E|-----------------|-----------------|-----------------|-----------------|
"Where it will go"

   1 & 2 & 3 & 4 & 
G|-----------------|
D|-3---------------|   <--Repeat this 3 Times
A|---------3-------|   
E|-----------------|
"I'm filling the cracks..."

   1 & 2 & 3 & 4 &   1 & 2 & 3 & 4 &   1 & 2 & 3 & 4 &   1 & 2 & 3 & 4 & 
G|-----------------|-----------------|-----------------|-----------------|
D|-3-----------6---|-3---------3/6---|-----------3/6---|-----------3/6---|
A|-------1/3-------|-------3---------|-------3---------|-------3---------|
E|-----------------|-----------------|-----------------|-----------------|
                   "Where it will go"

   1 & 2 & 3 & 4 &   1 & 2 & 3 & 4 &   1 & 2 & 3 & 4 &   1 & 2 & 3 & 4 &
G|-----------------|-----------------|-----------------|-----------------|
D|-----------------|-3---3-------3---|-3---3-------3---|-3---3-------3---|
A|-----------------|---------3-5---5-|---------3-5---5-|---------3-5---5-|
E|-----------------|-----------------|-----------------|-----------------|
            "And it really doesn't matter..."

   1 & 2 & 3 & 4 &   1 & 2 & 3 & 4 &   1 & 2 & 3 & 4 &   1 & 2 & 3 & 4 &
G|-----------------|-----------------|-----------------|-----------------|
D|-3---3---2-------|-----------------|-----------------|-----------------|
A|-------------5---|-3---3-------2---|-3---3-------2---|-3---3-------2---|
E|-----------------|---------3-5---3-|---------3-5---3-|---------3-5---3-|
                   "See the people..."

   1 & 2 & 3 & 4 &   1 & 2 & 3 & 4 &   1 & 2 & 3 & 4 &   1 & 2 & 3 & 4 &
G|-----------------|-----------------|-10--------------|-----------------|

D|-------------2---|-3---------------|---------10>>>>>>|>3---------------|
A|-3---4---5-------|---------3-------|-----------------|---------3-------|
E|-----------------|-----------------|-----------------|-----------------|
		   "I'm painting the room..."

   1 & 2 & 3 & 4 &   1 & 2 & 3 & 4 &   1 & 2 & 3 & 4 &   1 & 2 & 3 & 4 & 
G|-----------------|-----------------|-----------------|-----------------|
D|-3---------3/6---|-3-----3/6-------|-----------3/6---|-----------3/6---|
A|-------3---------|-----3-----------|---3-------------|-------3---------|
E|-----------------|-----------------|-------1---------|-----------------|
                   "Where it will go"

   1 & 2 & 3 & 4 &   1 & 2 & 3 & 4 &   1 & 2 & 3 & 4 &   1 & 2 & 3 & 4 &
G|-----------------|-----------------|-----------------|-----------------|
D|-----------3/6---|-3---3-----------|-3---3-----------|-3---3-----------|
A|-------3---------|---------3---3---|---------3---3---|---------3---3---|
E|-----------------|-----------4---4-|-----------4---4-|-----------4---4-|
                    (Here's the bridge)

   1 & 2 & 3 & 4 &   1 & 2 & 3 & 4 &   1 & 2 & 3 & 4 &   1 & 2 & 3 & 4 &
G|-----------------|-----------------|-----------------|-----------------|
D|-3---3-----3/6---|-----------3/6---|-----------3/6---|-----------3/6---|
A|---------3-------|-------3---------|-------3---------|-------3---------|
E|-----------------|-----------------|-----------------|-----------------|


   1 & 2 & 3 & 4 &   1 & 2 & 3 & 4 &   1 & 2 & 3 & 4 &   1 & 2 & 3 & 4 &
G|-----------------|-----------------|-----------------|-----------------|
D|-----------------|-3---3-------3---|-3---3-------3---|-3---3-------3---|
A|-----------------|---------3-5---5-|---------3-5---5-|---------3-5---5-|
E|-----------------|-----------------|-----------------|-----------------|
            "And it really doesn't matter..."

   1 & 2 & 3 & 4 &   1 & 2 & 3 & 4 &   1 & 2 & 3 & 4 &   1 & 2 & 3 & 4 &
G|-----------------|-----------------|-----------------|-----------------|
D|-3---3---2-------|-----------------|-----------------|-----------------|
A|-------------5---|-3---3-------2---|-3---3-------2---|-3---3-------2---|
E|-----------------|---------3-5---3-|---------3-5---3-|---------3-5---3-|
		   "Silly people running..."

   1 & 2 & 3 & 4 &   1 & 2 & 3 & 4 &   1 & 2 & 3 & 4 &   1 & 2 & 3 & 4 &
G|-----------------|-----------------|-10--------------|-10--------------|
D|-------------2---|-3---------------|---------10------|---------10>>>>>>|
A|-3---4---5-------|---------3-------|-----------------|-----------------|
E|-----------------|-----------------|-----------------|-----------------|
		   "I'm taking the time..."

   1 & 2 & 3 & 4 &   1 & 2 & 3 & 4 &   1 & 2 & 3 & 4 &   1 & 2 & 3 & 4 & 
G|-----------------|-----------------|-----------------|-----------------|
D|>3---------------|-3---------3/6---|-----------3/6---|-----------3/6---|
A|---------3-------|-------3---------|-------3---------|-------3---------|
E|-----------------|-----------------|-----------------|-----------------|
		   "And I still go!"

   1 & 2 & 3 & 4 &   1 & 2 & 3 & 4 &   1 & 2 & 3 & 4 &   1 & 2 & 3 & 4 &
G|-----------------|-----------------|-----------------|-----------------|
D|-----------3/6---|-3---3-----------|-3---3-----------|-3---3-----------|
A|-------3---------|---------3---3---|---------3---3---|---------3---3---|
E|-----------------|-----------------|-----------------|-----------------|
		   "I'm fixing a hole..."

   1 & 2 & 3 & 4 &   1 & 2 & 3 & 4 &
G|-----------------|-----------------|
D|-3---3-----------|-3-------3---6---|
A|---------3---3---|-------3---------|
E|-----------------|-----------------|
		   "Where it will go"

   1 & 2 & 3 & 4 &  
G|-----------------|
D|-----------3/6---|    <--Repeat this until the song fades out
A|-------3---------|
E|-----------------|
            
Hard to play? Try these video lessons and learn fast. | Correct




comments powered by Disqus
↑ Back to top | Tablatures and chords are parodies/interpretations of the original songs. You may use it for private study, scholarship, research or language learning purposes only