» » »

Beatles, Doctor Robert Bass tabs (ver.2)

Artists:  A B C D E F G H I J K L M N O P Q R S T U V W X Y Z # 

Doctor Robert Bass tabs (ver.2)

Beatles Tabs
 Rating:
4/5 (4 votes)
Doctor Robert lessons Tabs too difficult? Try these video lessons and learn fast
                Doctor Robert
The Beatles
Written by John Lennon and Paul McCartney; released on "Revolver" album.

This song was written about a dentist Dr. Robert Freymann who was also a 
drug dealer. It's a harder rocking song, and I like the refrains, because 
they almost sound like a christmas song :-)

Intro:
G|------- ------- ------- -------|------- ------- ------- -------|
D|7-----------------------5------|7-----------7-----------6------|
A|----------------7--------------|----------------7--------------|
E|-------------------------------|-------------------------------|



G|------- ------- ------- -------|------- ------- ------- -------|
D|7------------------------------|7-----------7-----------6------|
A|----------------7--------------|----------------7--------------|
E|-------------------------------|-------------------------------|


Verse:
G|------- ------- ------- -------|------- ------- ------- -------|
D|7------------------------------|7-----------7------------------|
A|----------------7--------------|----------------7-------7------|
E|-------------------------------|-------------------------------|
  Ring, my    friend, I       said    you'd   call    Doc  -  tor


G|------- ------- ------- -------|------- ------- ------- -------|
D|7------------------------------|7-----------7------------------|
A|----------------7--------------|----------------7-------7------|
E|-------------------------------|-------------------------------|
  Ro- bert


G|------- ------- ------- -------|------- ------- ------- -------|
D|7-----------7------------------|7-----------7------------------|
A|----------------7--------------|----------------7-------5------|
E|-------------------------------|-------------------------------|
  Day or      night   he'll   be  there any   time at all,    Doc-


G|------- ------- ------- -------|------- ------- ------- -------|
D|7-----------7------------------|7-----------7-----------5------|
A|----------------7-----------7--|----------------7--------------|
E|-------------------------------|-------------------------------|
      tor Ro- bert                                    Doc  -  tor


G|------- ------- ------- -------|------- ------- ------- -------|
D|4------------------------------|4-----------4------------------|
A|----------------4-----------7--|------------------------4------|
E|-------------------------------|----------------6--------------|
  Ro- bert,                                       you're a    new


G|------- ------- ------- -------|------- ------- ------- -------|
D|4------------------------------|4-----------4------------------|
A|----------------4-----------7--|------------------------4------|
E|-------------------------------|----------------6--------------|
              and better      man,                he  helps   you


G|------- ------- ------- -------|------- ------- ------- -------|
D|4------------------------------|4-----------------------4------|
A|----------------4--------------|----------------4--------------|
E|-------------------------------|-------------------------------|
              to  un- der     stand,              He  does    eve-


G|------- ------- ------- -------|------- ------- ------- -------|
D|-------------------------------|4-----------------------4------|
A|7-----------5---4--------------|------------4---4--------------|
E|------------------------7------|-------------------------------|
          ry  -   thing he    can                         Doctor


G|------- ------- ------- -------|------- ------- ------- -------|
D|-------------------------------|-------------------------------|
A|2-----------------------0---1--|2-----------------------2------|
E|----------------2--------------|----------------2--------------|
  Ro- bert

Verse:
G|2------ ------- ------- 0------|2------ ----2-- ------- -------|
D|----------------2--------------|----------------2-------2------|
A|-------------------------------|-------------------------------|
E|-------------------------------|-------------------------------|
  If  you're  down,   he'll   pick    you     up,     Doc  -  tor


G|2------ ------- ------- -------|2------ ------- ------- -------|
D|----------------2--------------|----------------2-------2------|
A|-------------------------------|-------------------------------|
E|-------------------------------|-------------------------------|
  Ro- bert


G|2------ ------- ------- -------|2------ ------- ------- -------|
D|----------------2--------------|----------------2-------2------|
A|-------------------------------|-------------------------------|
E|-------------------------------|-------------------------------|
  Take a      drink   from    his special     cup,    Doc  -  tor


G|2------ ------- ------- -------|2------ ------- ------- 2------|
D|----------------2--------------|----------------2--------------|
A|-------------------------------|-------------------------------|
E|-------------------------------|-------------------------------|
  Ro- bert                                            Doc  -  tor


G|------- ------- ------- -------|------- ------- ------- -------|
D|4------------------------------|4-----------4------------------|
A|----------------4-----------7--|------------------------4------|
E|-------------------------------|----------------6--------------|
  Ro- bert,                                       he's a      man


G|------- ------- ------- -------|------- ------- ------- -------|
D|4------------------------------|4------------------------------|
A|----------------4--------------|------------------------4------|
E|-------------------------------|----------------6--------------|
              you must    believe,                helping     a-


G|------- ------- ------- -------|------- ------- ------- -------|
D|4------------------------------|4------------------------------|
A|----------------4--------------|--------------------4---7------|
E|-------------------------------|----------------6--------------|
              ny- one in      need


G|------- ------- ------- -------|------- ------- ------- -------|
D|-------------------------------|4---------------4--------------|
A|7-----------5---4--------------|-------------------------------|
E|------------------------7------|-------------------------------|
  No      one     can     suc  -  ceed    like    Doc  -  tor


G|------- ------- ------- -------|------- ------- ------- -------|
D|----------------4-----------4--|-------------------------------|
A|2------------------------------|2---------------2--------------|
E|-------------------------------|-------------------------------|
  Ro- bert

Refrain:
G|4------ ------- 4------ 4------|4------ ------- 4------ -------|
D|-------------------------------|-------------------------------|
A|-------------------------------|-------------------------------|
E|-------------------------------|-------------------------------|
  Well,           well,           well,           you're


G|4------ 4------ 4------ 4------|4------ ------- 4------ -------|
D|-------------------------------|-------------------------------|
A|-------------------------------|-------------------------------|
E|-------------------------------|-------------------------------|
  fee     -       ling            fine,


G|4------ 4------ 4------ 4------|4------ ------- 4------ -------|
D|-------------------------------|-------------------------------|
A|-------------------------------|-------------------------------|
E|-------------------------------|-------------------------------|
  Well,           well,           well,           he'll


G|4------ 4------ 4------ 4------|4------ ------- 4------ \------|
D|-------------------------------|-------------------------------|
A|-------------------------------|-------------------------------|
E|-------------------------------|-------------------------------|
  make            you                                     Doctor


G|2------ 2------ ------- 0------|2------ ------- ------- 0------|
D|----------------2--------------|--------------------2----------|
A|-------------------------------|----------------0--------------|
E|-------------------------------|-------------------------------|
  Ro- bert

Verse:
G|2------ ------- ------- -------|2------ ------- ------- 0------|
D|----------------2--------------|----------------2--------------|
A|-------------------------------|-------------------------------|
E|-------------------------------|-------------------------------|
  My  friend  works   for     the National    Health, Doc  -  tor


G|2------ ------- ------- ----0--|2------ ------- ------- 0------|
D|----------------2--------------|--------------------2----------|
A|-------------------------------|----------------0--------------|
E|-------------------------------|-------------------------------|
  Ro- bert


G|2------ ------- ------- ----0--|2------ ----2-- ------- 0------|
D|----------------2--------------|----------------2--------------|
A|-------------------------------|-------------------------------|
E|-------------------------------|-------------------------------|
  Ho- ping    mo  -   ney just to see your -  self    with Doctor


G|2------ ------- ------- ----0--|2------ ------- ----0-- -------|
D|----------------2--------------|----------------2-------2------|
A|-------------------------------|-------------------------------|
E|-------------------------------|-------------------------------|
  Ro- bert                                            Doc  -  tor


G|------- ------- ------- -------|------- ------- ------- -------|
D|4------------------------------|4------------------------------|
A|----------------4-----------7--|------------------------4------|
E|-------------------------------|----------------6--------------|
  Ro- bert,                                       you're a    new


G|------- ------- ------- -------|------- ------- ------- -------|
D|4------------------------------|4------------------------------|
A|----------------4-----------7--|------------------------4------|
E|-------------------------------|----------------6--------------|
              and better      man,                he  helps   you


G|------- ------- ------- -------|------- ------- ------- -------|
D|4------------------------------|4------------------------------|
A|----------------4--------------|------------------------4------|
E|-------------------------------|----------------6--------------|
              to  un- der     stand,              He  does    eve-


G|------- ------- ------- -------|------- ------- ------- -------|
D|-------------------------------|4-----------4-----------4------|
A|7-----------5---4--------------|----------------4--------------|
E|------------------------7------|-------------------------------|
          ry  -   thing he    can                         Doctor


G|------- ------- ------- -------|------- ------- ------- -------|
D|----------------4--------------|----------------4--------------|
A|2------------------------------|2------------------------------|
E|-------------------------------|-------------------------------|
  Ro- bert

Refrain:
G|4------ ------- 4------ 4------|------- 4------ 4------ -------|
D|-------------------------------|-------------------------------|
A|-------------------------------|-------------------------------|
E|-------------------------------|-------------------------------|
  Well,           well,           well,           you're


G|4------ 4------ ------- 4------|4------ ------- 4------ 4------|
D|-------------------------------|-------------------------------|
A|-------------------------------|-------------------------------|
E|-------------------------------|-------------------------------|
  fee     -       ling            fine,


G|4------ 4------ 4------ -------|------- 4------ 4------ -------|
D|-------------------------------|-------------------------------|
A|-------------------------------|-------------------------------|
E|-------------------------------|-------------------------------|
  Well,           well,           well,           he'll


G|------- 4------ 4------ -------|------- 4------ 4------ \------|
D|-------------------------------|-------------------------------|
A|-------------------------------|-------------------------------|
E|-------------------------------|-------------------------------|
  make            you                                     Doctor


G|2------ 2------ ------- -------|2------ 2------ ------- 0------|
D|--------------------2---2------|--------------------2----------|
A|-------------------------------|----------------0--------------|
E|-------------------------------|-------------------------------|
  Ro- bert

Outro:
G|2------ ------- ------- -------|2------ ------- ------- 0------|
D|----------------2-------0------|--------------------2----------|
A|-------------------------------|----------------0--------------|
E|-------------------------------|-------------------------------|
  Ring, my    friend, I       said    you'd   call    Doc  -  tor


G|2------ ------- ------- ----0--|2------ ------- ------- 0---2--|
D|----------------2--------------|--------------------2----------|
A|-------------------------------|----------------0--------------|
E|-------------------------------|-------------------------------|
  Ro- bert


G|2------ ------- ------- ----0--|2------ ------- ------- ----0--|
D|----------------2--------------|----------------2--------------|
A|-------------------------------|-------------------------------|
E|-------------------------------|-------------------------------|
  Ring, my    friend, I       said    you'd   call    Doc  -  tor


G|2------ ------- ------- 0------|2------ ------- ------- -------|
D|----------------2--------------|----------------2--------------|
A|-------------------------------|-------------------------------|
E|-------------------------------|-------------------------------|
  Ro- bert                                                Doctor


G|------- ------- ------- -------|------- ------- ------- -------|
D|4-------4----------------------|4---------------4--------------|
A|------------------------4------|-------------------------------|
E|-------------------------------|-------------------------------|
  Ro- bert!


G|4------ ------- ------- ----4--|------- ------- ------- -------|
D|----------------4--------------|-------------------------------|
A|-------------------------------|-------------------------------|
E|-------------------------------|-------------------------------|

(in the end you can hear that the song has a complete ending; I don't know 
why they faded it out)

Please e-mail me for any corrections, or write a comment.
            
Submit corrections

comments powered by Disqus
↑ Back to top | Beatles Bass for Doctor Robert. Lyrics for acoustic guitar and electric guitar. Tablatures and chords are parodies/interpretations of the original songs. You may use it for private study, scholarship, research or language learning purposes only