» » »

Beatles, Doctor Robert Bass tabs (ver.1)

Artists:  A B C D E F G H I J K L M N O P Q R S T U V W X Y Z # 

Doctor Robert Bass tabs (ver.1)

Beatles Tabs
 Rating:
4/5 (4 votes)
Doctor Robert lessons Tabs too difficult? Try these video lessons and learn fast
1
                    -----------------------------------------------------------

    THE BEATLES - DR. ROBERT (Lennon & McCartney) from REVOLVER
                  album. Released on August, 6th 1966.

    -----------------------------------------------------------

    Bass Tab by:PJVillanueva


    Ring my friend, I said you call Doctor Robert
    Day or night he'll be there any time at all, Doctor Robert

    Doctor Robert, you're a new and better man
    He helps you to understand
    He does everything he can, Doctor Robert

    If you're down he'll pick you up, Doctor Robert
    Take a drink from his special cup, Doctor Robert

    Doctor Robert, he's a man you must believe,
    Helping anyone in need
    No one can succeed like Doctor Robert

    Well well well you're feeling fine
    Well well well, he'll make you...Doctor Robert

    My friend works for the National Health, Doctor Robert
    Don't pay money just to see yourself with Doctor Robert

    Doctor Robert, you're a new and better man,
    He helps you to understand,
    He does everything he can, Doctor Robert

    Well well well you're feeling fine
    Well well well, he'll make you...Doctor Robert

    Ring my friend, I said you call Doctor Robert
    Ring my friend, I said you call Doctor Robert
    Doctor Robert


    INTRO


  G|------- ------- ------- -------|------- ------- ------- -------|
  D|7-----------------------5------|7-----------7-----------5------|
  A|------------5---7--------------|----------------7--------------|
  E|-------------------------------|-------------------------------|

  G|------- ------- ------- -------|------- ------- ------- -------|
  D|7---------------------------5-/|7-----------7-----------5------|
  A|------------5---7--------------|----------------7--------------|
  E|-------------------------------|-------------------------------|


    VERSE 1
    00:06
  G|------- ------- ------- -------|------- ------- ------- -------|
  D|7---------------------------5-/|7-----------7------------------|
  A|------------x---7--------------|----------------7-------7------|
  E|-------------------------------|-------------------------------|
    Ring        friend, I       said    you     call    Doctor
        my


  G|------- ------- ------- -------|------- ------- ------- -------|
  D|7---------------------------x--|7-----------7------------------|
  A|------------5-/-7--------------|----------------7-------7------|
  E|-------------------------------|-------------------------------|
    Robert

  G|------- ------- ------- -------|------- ------- ------- -------|
  D|7---------------------------x--|7-----------7------------------|
  A|------------5-/-7--------------|----------------7-------5------|
  E|-------------------------------|-------------------------------|
    Day or      night   he'll   be  there   any     time    all,
                                                        at


  G|------- ------- ------- -------|------- ------- ------- -------|
  D|7---------------------------5--|7-----------7-----------5------|
  A|------------5-/-7--------------|----------------7--------------|
  E|-------------------------------|-------------------------------|
        Doctor  Robert                                  Doctor

    00:17
  G|------- ------- ------- -------|------- ------- ------- -------|
  D|4-----------4---------------2--|4-----------4------------------|
  A|----------------4--------------|----------------0---2---4------|
  E|-------------------------------|-------------------------------|
    Robert                                          you're      new
                                                        a


  G|------- ------- ------- -------|------- ------- ------- -------|
  D|4-----------4---------------2-/|4-----------4------------------|
  A|----------------4--------------|----------------0---2---4------|
  E|-------------------------------|-------------------------------|
                and better      man,                he  helps   you

  G|------- ------- ------- -------|------- ------- ------- -------|
  D|4-----------4------------------|4-----------4-----------4------|
  A|----------------4-----------x--|----------------4--------------|
  E|-------------------------------|-------------------------------|
                to  understand                      He  does    every..


    RETRANSITION

  G|------- ------- ------- -------|------- ------- ------- -------|
  D|2------------------------------|4-----------4-----------4------|
  A|------------5-\-4-------2------|----------------4--------------|
  E|-------------------------------|-------------------------------|
                  ..thing       can,                        Doctor
                        he


  G|4------ ------- ------- 2---/--|4------ ------- ------- 4------|
  D|----------------4--------------|----------------4--------------|
  A|-------------------------------|-------------------------------|
  E|-------------------------------|-------------------------------|
    Robert


    VERSE 2
    00:32
  G|------- ------- ------- -------|------- ------- ------- -------|
  D|7-----------------------5------|x-----------7-----------2-----/|
  A|----------------7--------------|----------------7--------------|
  E|-------------------------------|-------------------------------|
    If  you're  down    he'll   pick    you     up,     Doctor

  G|------- ------- ------- -------|------- ------- ------- -------|
  D|7-----------7---------------5-/|7------------------------------|
  A|----------------7--------------|----------------7-------7------|
  E|-------------------------------|-------------------------------|
    Robert

  G|------- ------- ------- -------|------- ------- ------- -------|
  D|7---------------------------6--|7-----------7------------------|
  A|----------------7--------------|----------------7-------7------|
  E|-------------------------------|-------------------------------|
    Take        drink   from    his special     cup,    Doctor
        a


  G|------- ------- ------- -------|------- ------- ------- -------|
  D|7---------------------------x--|7-----------------------7------|
  A|------------5-/-7--------------|------------5-/-7--------------|
  E|-------------------------------|-------------------------------|
    Robert                                              Doctor

    00:43
  G|------- ------- ------- -------|------- ------- ------- -------|
  D|4-----------4---------------2--|4-----------4------------------|
  A|----------------4--------------|----------------0---2---4------|
  E|-------------------------------|-------------------------------|
    Robert                                          He's        man
                                                        a


  G|------- ------- ------- -------|------- ------- ------- -------|
  D|4-----------4------------------|4-----------------------2------|
  A|----------------4--------------|------------1-\-4--------------|
  E|-------------------------------|-------------------------------|
                you must    believe                 helping     any..

  G|------- ------- ------- -------|------- ------- ------- -------|
  D|4-----------4------------------|4-----------4------------------|
  A|----------------4--------------|----------------0---2---4------|
  E|-------------------------------|-------------------------------|
                  ..one in      need


    RETRANSITION
    00:52
  G|------- ------- ------- -------|------- ------- ------- -------|
  D|2------------------------------|4-----------4---4-----------4--|
  A|------------5-\-4-------2------|-------------------------------|
  E|-------------------------------|-------------------------------|
    No      one     can     succeed         like    Doctor      Robert

  G|------- ------- ------- -------|------- ------- 4------ -------|
  D|----------------4-----------4--|-------------------------------|
  A|2-----------2------------------|2------------------------------|
  E|-------------------------------|-------------------------------|

    MIDDLE EIGHT 1
    00:58
  G|------- ------- ------- -------|------- ------- ------- -------|
  D/9-------9-------9-------9------|9----------------9------9------|
  A|-------------------------------|-------------------------------|
  E|-------------------------------|-------------------------------|
    Well            well            well            you're

  G|------- ------- ------- -------|------- ------- ------- -------|
  D|9-------9-------9-------9------|9---------------9-------------9|
  A|-------------------------------|-------------------------------|
  E|-------------------------------|-------------------------------|
    feeling                         fine

  G|------- ------- ------- -------|------- ------- ------- -------|
  D|9-------9-------9-------9------|9---------------9--------------|
  A|-------------------------------|-------------------------------|
  E|-------------------------------|-------------------------------|
    Well            well            well            he'll

  G|------- ------- ------- -------|------- ------- ------- -------|
  D|9-------9-------9-------9------|9---------------9--------------|
  A|-------------------------------|-------------------------------|
  E|-------------------------------|-------------------------------|
    make            you                                     Doctor

    01:10
  G|------- ------- ------- -------|------- ------- ------- -------|
  D|7-------7---------------5------|7-----------7---7--------------|
  A|------------5-/-7--------------|--------------------5---7------|
  E|-------------------------------|-------------------------------|
    Robert


    VERSE 3
    01:13
  G|------- ------- ------- -------|------- ------- ------- -------|
  D|7------------------------------|7-----------7-----------6------|
  A|------------5-/-7--------------|-------------------------------|
  E|-------------------------------|-------------------------------|
    My  friend  works   for     the National    Health, Doctor

  G|------- ------- ------- -------|------- ------- ------- -------|
  D|7-----------7---------------6--|7-----------x---7--------------|
  A|----------------7--------------|--------------------5---7------|
  E|-------------------------------|-------------------------------|
    Robert

  G|------- ------- ------- -------|------- ------- ------- -------|
  D|7---------------------------5--|7-----------7-----------7------|
  A|------------x---7--------------|----------------7--------------|
  E|-------------------------------|-------------------------------|
    Don't       money       just    see     yourself    with
        pay                     to                          Doctor


  G|------- ------- ------- -------|------- ------- ------- -------|
  D|7---------------------------5--|7-----------x-------5----------|
  A|------------5-/-7--------------|----------------7-------7------|
  E|-------------------------------|-------------------------------|
    Robert                                              Doctor

    01:24
  G|------- ------- ------- -------|------- ------- ------- -------|
  D|4---------------------------2--|4-----------4------------------|
  A|------------2---4--------------|----------------0---2---4------|
  E|-------------------------------|-------------------------------|
    Robert                                          you're      new
                                                        a


  G|------- ------- ------- -------|------- ------- ------- -------|
  D|4------------4--------------3--|4-----------4------------------|
  A|----------------4--------------|----------------0---2---4------|
  E|-------------------------------|-------------------------------|
                and better      man,                He  helps   you

  G|------- ------- ------- -------|------- ------- ------- -------|
  D|4-----------x---------------2--|4-----------4------------------|
  A|----------------4--------------|----------------0---2---4------|
  E|-------------------------------|-------------------------------|
                to  understand,                     he  does    every..


    RETRANSITION
    01:33
  G|------- ------- ------- -------|------- ------- ------- -------|
  D|-------------------------------|-------------------------------|
  A|7-----------5----4-------------|9-----------9-----------9------|
  E|------------------------7------|----------------9--------------|
                  ..thing       can                         Doctor
                        he


  G|------- ------- ------- -------|------- ------- ------- -------|
  D|-------------------------------|-------------------------------|
  A|------------x---9--------------|------------x---9-------9------|
  E/7------------------------------/7------------------------------|
    Robert

    MIDDLE EIGHT 2
    01:39
  G|------- ------- ------- -------|------- ------- ------- -------|
  D/9---------------9-------9------|--------9-------9-------9------|
  A|-------------------------------|-------------------------------|
  E|-------------------------------|-------------------------------|
    Well            well            well            you're

  G|------- ------- ------- -------|------- ------- ------- -------|
  D|9-------9---------------9------|9---------------9-------9------|
  A|-------------------------------|-------------------------------|
  E|-------------------------------|-------------------------------|
    feeling                         fine

  G|------- ------- ------- -------|------- ------- ------- -------|
  D|--------9-------9--------------|--------9-------9--------------|
  A|-------------------------------|-------------------------------|
  E|-------------------------------|-------------------------------|
    Well            well            well            he'll

  G|------- ------- ------- -------|------- ------- ------- -------|
  D|--------9-------9--------------|--------9-------9--------------|
  A|-------------------------------|-------------------------------|
  E|-------------------------------|-------------------------------|
    make            you                                     Doctor

    CODA
    01:51
  G|------- ------- ------- -------|------- ------- ------- -------|
  D|7-------7----------------------|7-------7---7---7--------------|
  A|--------------------7---7------|--------------------5---7------|
  E|-------------------------------|-------------------------------|
    Robert

  G|------- ------- ------- -------|------- ------- ------- -------|
  D|7-----------x---------------5--|7-----------7---7--------------|
  A|----------------7-------5------|--------------------5---7------|
  E|-------------------------------|-------------------------------|
    Ring        friend  I       said    you     call    Doctor
        my


  G|------- ------- ------- -------|------- ------- ------- -------|
  D|7---------------------------5--|7-----------7---7-----------5--|
  A|------------5-/-7--------------|--------------------5---7------|
  E|-------------------------------|-------------------------------|
    Robert

  G|------- ------- ------- -------|------- ------- ------- -------|
  D|7---------------------------6--|7-----------x---------------5/-|
  A|----------------7-------7------|----------------7--------------|
  E|-------------------------------|-------------------------------|
    Ring        friend  I       said    you     call    Doctor  Robert
        my


  G|------- ------- ------- -------|------- ------- ------- -------|
  D|7-----------x-----------5------|7-----------x------------------|
  A|----------------7--------------|----------------7--------------|
  E|-------------------------------|-------------------------------|
                                                        Doctor

  G|------- ------- ------- -------|------- ------- ------- -------|
  D|-------------------------------|-------------------------------|
  A/9-------9----------------------|9---------------9--------------|
  E|------------------------9------|-------------------------------|
    Robert
    .......................... Fade out ...........................


                           (.
  G|------- ------- ------- -------|------- ------- ------- -------|
  D|9-----------------------9------|-------------------------------|
  A|----------------9--------------|-------------------------------|
  E|-------------------------------|-------------------------------|
    ...............................




        B  Bend
        R  Release
        /  slide up
        \  slide down
        H  hammer-on
        P  pull-off
        ~  vibrato
        +  harmonic
        x  Mute note
        . - play note like a dot in standard notation
        ^ - ties two notes together
        (.  Pause
            
Submit corrections

comments powered by Disqus
↑ Back to top | Beatles Bass for Doctor Robert. Lyrics for acoustic guitar and electric guitar. 1 Tablatures and chords are parodies/interpretations of the original songs. You may use it for private study, scholarship, research or language learning purposes only