» » »

Beatles, Bad Boy Tabs (ver.1)

Artists:  A B C D E F G H I J K L M N O P Q R S T U V W X Y Z # 

Bad Boy Tabs (ver.1)

Beatles Tabs
 Rating:
4/5 (4 votes)
Bad Boy lessons Tabs too difficult? Try these video lessons and learn fast
1
                Bad Boy by Larry Williams

Fast tempo. Repeat riffs throughout.

             C
E|--------------------------|
B|--------------------------|
G|---------------------2--2-|
D|---------2--2--5--5-------|
A|---3--3-------------------|
E|--------------------------|

(Verse 1)
A bad little kid moved in-to my neighborhood.
He won't do nothing right, his report card looks no good.
(Verse 2)
Buys every rock and roll book on the magazine stand
Every dime that he gets is lost to the jukebox man.
(Verse 3)
Going tell your mama you better do what she said.
Get to the barber shop and get that hair cut off your head.
             F
E|----------------------------|
B|----------------------------|
G|-----------------------7--7-|
D|---------7--7--10--10-------|
A|---8--8---------------------|
E|----------------------------|
(Verse 1)
He don't want to go to school and learn to read and write.
(Verse 2)
Well he worries his teacher till at night she's ready to poop.
(Verse 3)
Threw the canary and you fed it to the neighbors cat.
             C
E|--------------------------|
B|--------------------------|
G|---------------------2--2-|
D|---------2--2--5--5-------|
A|---3--3-------------------|
E|--------------------------|
(Verse 1)
Just sits around the house and plays the rock and roll music all night.
(Verse 2)
Rocking and a-rolling spinning in a hula hoop
(Verse 3)
You gave the cocker spaniel a bath in mother's Laundromat.
         G                  F                C 
E|---------------------|---------------|---------------|
B|---------------------|---------------|---------------|
G|---------------------|---------------|---------------|
D|---------------------|---------------|---------------|
A|--10-10-10-10--10-10-|--8-8-8-8--8-8-|--8/3----------|
E|---------------------|---------------|---------------|
(Verse 1)
Well, he put some tacks on teachers chair
Puts some gum in little girl's hair.
(n/c)
Hey, junior, behave yourself.
(Verse 2)
Well this rock and roll has got to stop.
Junior's head is hard as rock.
(n/c)
Now, junior, behave yourself.
(Verse 3)
Well, mama's head has got to stop.
Junior's head is hard as rock.
(n/c)
Now, junior, behave yourself
 
Verse1.

C
A bad little kid moved into my neighborhood
He won't do nothing right, his report card looks no good

F
He don't want to go to school and learn to read and write

C
Just sits around the house and plays the rock and roll music all night

G
Well, he put some tacks on teachers chair

F
Puts some gum in little girl's hair

C
Hey, junior, behave yourself


Verse2

C
Buys every rock and roll book from the magazine stand
Every dime that he gets is lost to the jukebox man

F
Well he worries his teacher till at night she's ready to poop

C
Rocking and a-rolling spinning in a hula hoop

G
Well this rock and roll has got to stop

F
Junior's head is hard as rock

C
Now, junior, behave yourself


Verse3
C
Going tell your mama you better do what she said
Get to the barber shop and get that hair cut off your head

F
Took his pet canary and fed it to the neighbors cat

C
Gave the cocker spaniel a bath in mother's Laundromat

G
Well, mama's head has got to stop

F
Junior's head is hard as rock

C
Now, junior, behave yourself
            
Submit corrections

comments powered by Disqus
↑ Back to top | Beatles Tabs for Bad Boy. Lyrics for acoustic guitar and electric guitar. 1 Tablatures and chords are parodies/interpretations of the original songs. You may use it for private study, scholarship, research or language learning purposes only