>
 >
Bad Boy

Bad Boy Bass Tabs

Beatles - Bad Boy chords, tabs, tablatures, lyrics

Guitar lessons | Add/correct | Request | Top 50 tabs Artists:  A B C D E F G H I J K L M N O P Q R S T U V W X Y Z 0-9

Bad Boy Bass Tabs – Beatles

CD, Sheet music, Poster

Do you like Bad Boy? Share with your friends now
Bass TabsChordsTabsUkulele
Bad Boy
The Beatles
Written by Larry Williams; released on "Oldies But Goldies" and "Past Masters Vol. 1."

A simple song, but it ROCKS! :-)

Intro:
G|------- ------- ------- -------|------- ------- ------- -------|
D|-------------------------------|-------------------------------|
A|3-------3-------3---3-------3--|-------------------------------|
E|-------------------------------|-------------------------------|



G|------- ------- ------- -------|------- ------- ------- -------|
D|-------------------------------|-------------------------------|
A|3-------3-------3---3-------3--|-------------------------------|
E|-------------------------------|-------------------------------|
                                                              The

Verse:
G|------- ------- ------- -------|------- ------- ------- -------|
D|-------------------------------|-------------------------------|
A|3-------3-------------------1--|3-------3-------------------1--|
E|----------------3---3---3------|----------------3---3---3------|
  bad     little  kid     moved   in  -   to  my  neighbour - hood


G|------- ------- ------- -------|------- ------- ------- -------|
D|-------------------------------|-------------------------------|
A|3-------3-------------------1--|3-------3-------------------1--|
E|----------------3---3---3------|----------------3---3---3------|
                                                              He


G|------- ------- ------- -------|------- ------- ------- -------|
D|-------------------------------|-------------------------------|
A|3-------3-------------------1--|3-------3-------------------1--|
E|----------------3---3---3------|----------------3---3---3------|
  won't   nothing right just been sitting down    look so     good
      do

G|------- ------- ------- -------|------- ------- ------- -------|
D|-------------------------------|----------------------------1--|
A|3-------3-------------------1--|3-------3----------------------|
E|----------------3---3---3------|----------------3---3---3------|
                                                              He


G|------- ------- ------- -------|------- ------- ------- -------|
D|3-------3-------------------1--|3-------3-------------------1--|
A|----------------3-------3------|----------------3-------3------|
E|-------------------------------|-------------------------------|
  don't   wanna   go      to  school  to learn to read    and write


G|------- ------- ------- -------|------- ------- ------- -------|
D|3-------3-------------------1--|3-------3----------------------|
A|----------------3-------3------|----------------3-------3---1--|
E|-------------------------------|-------------------------------|
                                                              Just


G|------- ------- ------- -------|------- ------- ------- -------|
D|-------------------------------|-------------------------------|
A|3-------3-------------------1--|3-------3-------------------1--|
E|----------------3---3---3------|----------------3---3---3------|
  sits around the house       the rock 'n' roll   mu- sic all night
                      and plays

G|------- ------- ------- -------|------- ------- ------- -------|
D|-------------------------------|-------------------------------|
A|3-------3-------------------1--|3-------3----------------------|
E|----------------3---3---3------|----------------3---3---3------|
                                                      Well,   he


G|------- ------- ------- -------|------- ------- ------- -------|
D|-------------------------------|-------------------------------|
A|-------------------------------|-------------------------------|
E|3-----------3-----------3------|1-----------1-----------1------|
  put some        teacher's       puts gum into   little  hair,
          tacks on        chair,                      girl's

G|------- ------- ------- -------|------- ------- ------- -------|
D|-------------------------------|-------------------------------|
A|3------------------------------|-------------------------------|
E|-------------------------------|-------------------------------|
          now,    junior,     be- have yourself

Verse:
G|------- ------- ------- -------|------- ------- ------- -------|
D|-------------------------------|-------------------------------|
A|3-------3-------------------1--|3-------3-------------------1--|
E|----------------3---3---3------|----------------3---3---3------|
  Buys    every   rock 'n' roll   book    on  a   ma- ga- zine


G|------- ------- ------- -------|------- ------- ------- -------|
D|-------------------------------|-------------------------------|
A|3-------3-------------------1--|3-------3-------------------1--|
E|----------------3---3---3------|----------------3---3---3------|
  stand                                                   Eve-ry


G|------- ------- ------- -------|------- ------- ------- -------|
D|-------------------------------|-------------------------------|
A|3-------3-------------------1--|3-------3-------------------1--|
E|----------------3---3---3------|----------------3---3---3------|
  dime    that he gets,   ooh is  lost    to  the jukebox,    man


G|------- ------- ------- -------|------- ------- ------- -------|
D|-------------------------------|----------------------------1--|
A|3-------3-------------------1--|3-------3----------------------|
E|----------------3---3---3------|----------------3---3---3------|
                                                      Well,   he's


G|------- ------- ------- -------|------- ------- ------- -------|
D|3-------3-------------------1--|3-------3-------------------1--|
A|----------------3-------3------|----------------3-------3------|
E|-------------------------------|-------------------------------|
  worry - ing the teacher till at night   she's a-ready   to  poop


G|------- ------- ------- -------|------- ------- ------- -------|
D|3-------3-------------------1--|3-------3----------------------|
A|----------------3-------3------|----------------3-------3------|
E|-------------------------------|-------------------------------|
                                                              From


G|------- ------- ------- -------|------- ------- ------- -------|
D|-------------------------------|-------------------------------|
A|3-------3-------------------1--|3-------3-------------------1--|
E|----------------3---3---3------|----------------3---3---3------|
  rocking and a-  rol  -  ling,   spinning in a   hoo  -  la  hoop


G|------- ------- ------- -------|------- ------- ------- -------|
D|-------------------------------|-------------------------------|
A|3-------3-------------------1--|3-------3---------------3------|
E|----------------3---3---3------|----------------3---3----------|
                                                      Well,   his


G|------- ------- ------- -------|------- ------- ------- -------|
D|-------------------------------|-------------------------------|
A|-------------------------------|-------------------------------|
E|3-----------3-----------3------|1-----------1-----------1------|
  mama's  head has got to stop,   junior's    is hard as rock,
                                          head

G|------- ------- ------- -------|------- ------- ------- -------|
D|-------------------------------|-------------------------------|
A|3------------------------------|-------------------------------|
E|-------------------------------|-------------------------------|
          now,    junior,     be- have yourself

Break (solo):
G|------- ------- ------- -------|------- ------- ------- -------|
D|-------------------------------|-------------------------------|
A|3-------3-------3---3---3---3--|3-------3-------3---3---3p1----|
E|-------------------------------|----------------------------3--|



G|------- ------- ------- -------|------- ------- ------- -------|
D|-------------------------------|-------------------------------|
A|3-------3-------3---3---3---3--|3-------3---3---1---1---0------|
E|-------------------------------|----------------------------3--|



G|------- ------- ------- -------|------- ------- ------- -------|
D|-------------------------------|-------------------------------|
A|----------------3---3---3------|----------------3---3---3------|
E|1-------1-------------------1--|1-------1-------------------1--|



G|------- ------- ------- -------|------- ------- ------- -------|
D|-------------------------------|-------------------------------|
A|3-------3---------------1------|3-------3---------------1---0--|
E|----------------3--------------|----------------3--------------|



G|------- ------- ------- -------|------- ------- ------- -------|
D|-------------------------------|-------------------------------|
A|-------------------------------|-------------------------------|
E|3-----------3-----------3------|1-----------1-----------1------|



G|------- ------- ------- -------|------- ------- ------- -------|
D|-------------------------------|-------------------------------|
A|3------------------------------|-------------------------------|
E|-------------------------------|----3---3---3---3---3---3---3--|


Verse:
G|------- ------- ------- -------|------- ------- ------- -------|
D|-------------------------------|-------------------------------|
A|3-------3-------------------1--|3-------3-------------------1--|
E|----------------3---3---3------|----------------3---3---3------|
  Gon-na  tell your               better  do      what she    says
                  ma  -   ma  you'd

G|------- ------- ------- -------|------- ------- ------- -------|
D|-------------------------------|-------------------------------|
A|3-------3-------------------1--|3-------3-------------------1--|
E|----------------3---3---3------|----------------3---3---3------|
                                                              Get


G|------- ------- ------- -------|------- ------- ------- -------|
D|-------------------------------|-------------------------------|
A|3-------3-------------------1--|3-------3-------------------1--|
E|----------------3---3---3------|----------------3---3---3------|
  to  the barber's                hair cut   off      your    head
                  shop and get the

G|------- ------- ------- -------|------- ------- ------- -------|
D|-------------------------------|-------------------------------|
A|3-------3-------------------1--|3-------3-------------------1--|
E|----------------3---3---3------|----------------3---3---3------|



G|------- ------- ------- -------|------- ------- ------- -------|
D|-------------------------------|-------------------------------|
A|----------------3---3---3------|----------------3---3---3------|
E|1-------1-------------------1--|1-------1-------------------1--|
  Threw   the ca- na- ry  and you fed it  to  the neighbour's cat


G|------- ------- ------- -------|------- ------- ------- -------|
D|-------------------------------|-------------------------------|
A|----------------3---3---3------|----------------3---3---3------|
E|1-------1-------------------1--|1-------1-------------------1--|
                                                              You


G|------- ------- ------- -------|------- ------- ------- -------|
D|-------------------------------|-------------------------------|
A|3-------3-------------------1--|3-------3-------------------1--|
E|----------------3---3---3------|----------------3---3---3------|
  gave the        spaniel     a   bath in mother's
          cocker                                  Laund - romat

G|------- ------- ------- -------|------- ------- ------- -------|
D|-------------------------------|-------------------------------|
A|3-------3-------------------1--|3-------3---------------3------|
E|----------------3---3---3------|----------------3--------------|
                                                      Well,   his


G|------- ------- ------- -------|------- ------- ------- -------|
D|-------------------------------|-------------------------------|
A|-------------------------------|-------------------------------|
E|3-----------3-----------3------|1-----------1-----------1------|
  mama's  head has got to stop,   junior's    is hard as rock,
                                          head

G|------- ------- ------- -------|------- ------- ------- -------|
D|-------------------------------|-------------------------------|
A|3------------------------------|------------------------3------|
E|-------------------------------|-------------------------------|
          now,    junior,     be- have yourself           Ooh!

Please e-mail me for any corrections.





Comments


Popular Beatles tabs & chords
Dr Robert Bass Tabs
Glad All Over Bass Tabs
All You Need Is Love 3 Chords
And I Love Her Chords
Everybodys Trying To Be My Baby Chords
For You Blue 1 Chords
Girl 6 Chords
Because Tabs
Come Together 3 Tabs
Helter Skelter Tabs


Song lyrics



↑ Back to top | Tablatures and chords are parodies/interpretations of the original songs. You may use it for private study, scholarship, research or language learning purposes only
© 2014 AZChords.com Contact us | Privacy policy | DMCA | Add/correct tabs | Request tabs | Top 50 tabs