» » »

Beatles, All My Loving Bass tabs (ver.2)

Artists:  A B C D E F G H I J K L M N O P Q R S T U V W X Y Z # 

All My Loving Bass tabs (ver.2)

Beatles Tabs
Rating:
0/5 (0 votes)
All My Loving lessons Tabs too difficult? Try these video lessons and learn fast
                Band - The Beatles
Song - All my loving
Tuning - Standard 4 string (E A D G)

Verse- x2
G|---------|---------|---------|---------|---------|---------|---------|---------|
D|-4-2-1---|---------|---------|---------|---------|-4-4---4-|-0-0-0-0-|---------|
A|-------4-|-2-0-----|---------|-4-4-----|-0-0-4-0-|-----4---|---------|-2-2-2-2-|
E|---------|-----4-2-|-0-4-2-4-|-----4-4-|---------|---------|---------|---------|

G|---------|---------|---------|---------|---------|---------|---------|---------|
D|-4-2-1---|---------|---------|---------|-------2-|-----4---|-2-------|---------|
A|-------4-|-2-0-----|-----2---|-4-4---4-|-0-0-4---|-2-2---2-|---4-2---|---------|
E|---------|-----4-2-|-0-4---4-|-----4---|---------|---------|-------4-|-0-------|

Chorus- x1
G|---------|---------|---------|---------|---------|---------|---------|---------|
D|---------|---------|-2-2-----|-2-2---2-|---------|---------|-2-------|---------|
A|-4-4-----|-3-3---2-|-----2-2-|-----2---|-4-4-----|-3-3---3-|---4-2---|---------|
E|-----4-4-|-----4---|---------|---------|-----4-4-|-----4---|-------4-|-0-------|

Guitar Solo- x1
G|---------|-2-------|---------|---------|---------|---------|---------|---------|
D|-----2-4-|---4-2---|-2-------|---------|-4-2-1---|---------|-2-------|---------|
A|-0-4-----|-------4-|---4-2---|-----2-4-|-------4-|-2-0-----|---4-2---|---------|
E|---------|---------|-------4-|-0-4-----|---------|-----4-2-|-------4-|-0-------|

Verse- x1
End- x1
G|---------|---------|---------|---------|---------|---------|---------|---------|
D|---------|---------|-2-2-----|-2-2---2-|---------|---------|-2-2-----|-2-2---2-|
A|-4-4-----|-3-3---2-|-----2-2-|-----2---|-4-4-----|-3-3---3-|-----2-2-|-----2---|
E|-----4-4-|-----4---|---------|---------|-----4-4-|-----4---|---------|---------|

G|---------|---------|---------|---------|---------|---------|---------|---------|
D|---------|---------|-2-2-----|-2-2---2-|---------|---------|-2-2-----|-2-------|
A|-4-4-----|-4-4---4-|-----2-2-|-----2---|-4-4-----|-4-4---4-|-----2-2-|---------|
E|-----4-4-|-----4---|---------|---------|-----4-4-|-----4---|---------|---------|

This song isnt really to my taste, but the bass line is really good, simple 4 beat per bar timing, and standard tuning, so its easy but still sounds good. get playin! rate this tab please.
            
Submit corrections

comments powered by Disqus
↑ Back to top | Beatles Bass for All My Loving. Lyrics for acoustic guitar and electric guitar. Tablatures and chords are parodies/interpretations of the original songs. You may use it for private study, scholarship, research or language learning purposes only