» » »

Beatles, All My Loving Bass tabs (ver.1)

Artists:  A B C D E F G H I J K L M N O P Q R S T U V W X Y Z # 

All My Loving Bass tabs (ver.1)

Beatles Tabs
 Rating:
4/5 (4 votes)
All My Loving lessons Tabs too difficult? Try these video lessons and learn fast
1
                All my loving


--------------------------------------
---------------4-2-1------------------
---------------------4--2--0----------
------------------------------4--2----
Close your eyes     and I´ll kiss you

-------------------------------------
-------------------------------------
-----2-----4--4------4---------------
-0-4---4---------4-------------------
Tomorrow I´ll miss you

----------------------------------------
---------2-4--4------4--0-0-0-0---------
-0-0--4----------4-----------------2--2-
----------------------------------------
Remember I´ll always be true

----------------------------------------
------------4-2-1-----------------------
-2-2---------------4--2--0--------------
----------------------------------------
And them while,  I´m away

---------------------------------------
---------------------------------------
----------------2-----4-4---4----------
--4---2----0-4----4-------4------------
I´ll write home every day

--------------------------------------------
-------------------2------4----2------------
---------0-0---4-----2--2----2---4--2-------
--------------------------------------4--0--
And I´ll send all my loving  to you



--------------------------------------
---------------4-2-1------------------
---------------------4--2--0----------
------------------------------4--2----
I´ll pretend that I´m kissing

-------------------------------------
-------------------------------------
-----2-----4--4------4---------------
-0-4---4---------4-------------------
the lips , oh I´m missing

----------------------------------------
---------2-4--4------4--0-0-0-0---------
-0-0--4----------4-----------------2--2-
----------------------------------------
And hope that my dreams will come true

----------------------------------------
------------4-2-1-----------------------
-2-2---------------4--2--0--------------
----------------------------------------
And them while, I´m away

---------------------------------------
---------------------------------------
----------------2-----4-4---4----------
--4---2----0-4----4-------4------------
I´ll write home every day

--------------------------------------------
-------------------2------4----2------------
---------0-0---4-----2--2----2---4--2-------
--------------------------------------4--0--
And I´ll send all my loving to you

Chorus

------------------------------------------------
-----------------------------------2-2------2-2-
----------4-4------3-3---------3-------2-2------
--------------4-4----------4--------------------
All my loving,     I will send to you

------------------------------------------------
----2------------------------------2------------
-2--------4-4--------3--3-------3----4--2-------
--------------4-4------------4-------------4--0-
All my loving,     darling I´ll be true


Solo

------------2-----------------------------------
------2--4----4--2-----2------------------------
-0--4---------------4-----4--2-----------2--4---
--------------------------------4--0--4---------


------------------------------------------------
-4--2--1------------------2---------------------
----------4--2--0------------4---2--------------
-------------------4--2-------------4---0------




--------------------------------------
---------------4-2-1------------------
---------------------4--2--0----------
------------------------------4--2----
Close your eyes     and I´ll kiss you

-------------------------------------
-------------------------------------
-----2-----4--4------4---------------
-0-4---4---------4-------------------
Tomorrow I´ll miss you

----------------------------------------
---------2-4--4------4--0-0-0-0---------
-0-0--4----------4-----------------2--2-
----------------------------------------
Remember I´ll always be true

----------------------------------------
------------4-2-1-----------------------
-2-2---------------4--2--0--------------
----------------------------------------
And them while,  I´m away

---------------------------------------
---------------------------------------
----------------2-----4-4---4----------
--4---2----0-4----4-------4------------
I´ll write home every day

--------------------------------------------
-------------------2------4----2------------
---------0-0---4-----2--2----2---4--2-------
--------------------------------------4--0--
And I´ll send all my loving  to you

Chorus

------------------------------------------------
-----------------------------------2-2------2-2-
----------4-4------3-3---------3-------2-2------
--------------4-4----------4--------------------
All my loving,     I will send to you

------------------------------------------------
-----------------------------------2-2------2-2-
----------4-4------3-3---------3-------2-2------
--------------4-4----------4--------------------
All my loving,     darling I´ll be true

------------------------------------------------
---2-------------------------------2-2------2-2-
-2--------4-4------3-3---------3-------2-2------
--------------4-4----------4--------------------
All my loving,               All my loving

------------------------------------------------
----2------------------------------2------------
-2--------4-4--------3--3-------3----4--2-------
--------------4-4------------4-------------4--0-
 Uhhh, all my loving,     I will send to you

Thanks for the oportunity

Luis.
            
Submit corrections

comments powered by Disqus
↑ Back to top | Beatles Bass for All My Loving. Lyrics for acoustic guitar and electric guitar. 1 Tablatures and chords are parodies/interpretations of the original songs. You may use it for private study, scholarship, research or language learning purposes only