» » »

Bathory, Valhalla Tabs (ver.1)

Artists:  A B C D E F G H I J K L M N O P Q R S T U V W X Y Z # 

Valhalla Tabs (ver.1)

Bathory Tabs
 Rating:
4/5 (4 votes)
Valhalla lessons Tabs too difficult? Try these video lessons and learn fast
1
                #------------------------------------PLEASE  NOTE-----------------------------------------------#

Band   Bathory


Copyright (c)  Noise Records
Version 1.0 - 21/12/2007

Tuning E A D G B E


. - palm mute / - slide up to
 - slide down to ~ - vibrato
h - hammer on p - pull off
, - slight palm mute () - ghost note, sustained note
" " tremolo note <> - Trill

Suffixes for bend
f - full bend h - half bend
ph - pinched harmonic q - quarter bend
t - tap bend * - see comment
^ - Hold bend r - release bend
x – Staccato ~ - vibrato bend


Intro: Acoustic Interlude

Riff A
|-------------------------------------------------------------------|
|-------------------------------------------------------------------| 
|---------------------5------------------------------5--------------| 
|-----------5-------------5--------------------5---------5----------|  
|-------5-------5-------------5----------5--------5---------5-------|
|---3--------------------------------3-------------------------3----|

Riff B
|---------------------------------------------------------------|
|---------------------------------------------------------------| 
|-----------------4---------------------------4-----------------| 
|----------4-----------4----------------4---------4-------------|  
|------4-------4-----------4-------4-------4-----------4--------|
|-2----------------------------2--------------------------------|


Fill 1          Play many times
|-------------------------------|
|-------------------------------| 
|-------------------------------| 
|-------------------------------|
|--2----------------------------|
|--0----------------------------|
   .
Riff 1
|-------------------------------------------------------------|
|-------------------------------------------------------------| 
|-------------------------------------------------------------| 
|-0---2----0--0---3----0-----2----0--2------------------------| 
|-0---2----0--0---3----0-----2----0--2------------------------|
|-0---0----0--0---0----0-----0----0--0------------------------|

Riff 2
|-----------------------------------------------------------------|
|-----------------------------------------------------------------| 
|-----------------------------------------------------------------| 
|--0----2--2----2--2---0---3--3---3--3----------------------------|  
|--0----2--2----2--2---0---3--3---3--3----------------------------|
|--0----0--0----0--0---0---1--1---1--1----------------------------|
            
------------------------------|
------------------------------| 
------------------------------| 
--2---------------------------|  
--2---------------------------|
--0---------------------------|

Riff 3 - Verse
|---------------------------------------------------------------------|
|---------------------------------------------------------------------| 
|-------------------------------------------------------------5-------|
|-4-4---3--3-3-3-3---2-2----4--4-4---4-4---3-3-3---2-2--4-4---5---4---|  
|-4-4---3--3-3-3-3---2-2----4--4-4---4-4---3-3-3---2-2--4-4---3---4---|
|-2-2---1--1-1-1-1---0-0----2--2-2---2-2---1-1-1---0-0--2-2-------2---|
  . .                . .             . .           . .  . .

Fill 2                      Play twice
|------------------------------------------
|------------------------------------------
|------------------------------------------
|--0-0-0-0--2-2-2-2--3-3-3-3--2-2-2--------
|--0-0-0-0--2-2-2-2--3-3-3-3--2-2-2--------
|--0-0-0-0--0-0-0-0--0-0-0-0--0-0-0--------

                              Play once
------------------------------------------|
------------------------------------------|
------------------------------------------|
--0---3---5---7----2----5----6----7-------|
--0---1---3---5----2----3----4----5-------|
--0---0---0---0----0----0----0----0-------|


Riff 4 - Pre Chorus
|-----------------------------------------------------------|
|-----------------------------------------------------------| 
|-----------------------------------------------------------| 
|--2-2-2-----2------2-2-----3------4------------------------|  
|--2-2-2-----2------2-2-----3------4------------------------|
|--0-0-0-----0------0-0-----1------2-----------------------|
   . . .            . .

Riff 5 - Chorus                         Slide all chords
|-----------------------------------------------------------|
|-----------------------------------------------------------| 
|-----------------------------------------------------------| 
|----0---2---3----4----5-----6----7----8-------2--2---------|  
|----0---2---1----2----3-----4----5----6-------2--2---------|
|----0---0---0----0----0-----0----0----0-------0--0---------|
                                               .  .

Play Riff 2 x 5

Play Riff 4 x 2

Play Fill 2 x 3

Play Riff 3 x 5

Fill 3:     
Listen for correct timing      
|---------------------------------------|
|---------------------------------------|
|---------------------------------------|
|--2------------------------------------|
|--2------------------------------------|
|--0------------------------------------|

Outro
|------------------------------------------|
|------------------------------------------| 
|------------------------------------------|
|--0-0-0--2-0-0-0---2--0-0-0--2--0-0--2-2--|  
|--0-0-0--2-0-0-0---2--0-0-0--2--0-0--2-2--|
|--0-0-0--0-0-0-0---0--0-0-0--0--0-0--0-0--|
 
Play Riff  4 x 2

Play Riff  5 x 3

Play Riff  2 x 4


End.
            
Submit corrections

comments powered by Disqus
↑ Back to top | Bathory Tabs for Valhalla. Lyrics for acoustic guitar and electric guitar. 1 Tablatures and chords are parodies/interpretations of the original songs. You may use it for private study, scholarship, research or language learning purposes only