>
 >
The Woodwoman

The Woodwoman Guitar Tabs

Bathory - The Woodwoman chords, tabs, tablatures, lyrics

Guitar lessons | Add/correct | Request | Top 50 tabs Artists:  A B C D E F G H I J K L M N O P Q R S T U V W X Y Z 0-9

The Woodwoman Guitar Tabs – Bathory

CD, Sheet music, Poster

Do you like The Woodwoman? Share with your friends now
Bass TabsBass Tabs v2Tabs

THE WOODWOMAN
As recorded by Bathory

	

Words and Music by Quorthon

Gtr I (E A D G B E) - 'Untitled'
Gtr II (E A D G B E) - 'Untitled'
Gtr III (E A D G B E) - 'Untitled'

  Q=128
 4/4
  Gtr I
  Q  E E E E E E   E E E E E E E E   E E E E E E E E   E E E E E E E E
|----0-------0---|-----0-------0---|-----0-------0---|-----0-------0----|
|------1---1---1-|---1---1---1---1-|---1---1---1---1-|---1---1---1---1--|
|----------------|-----------------|-----------------|------------------|
|--------2-------|-3---------------|---------2-------|-3----------------|
|-0--------------|---------3-------|-0---------------|---------3--------|
|----------------|-----------------|-----------------|------------------|


  E E E E E E E E   E E E E E E E E   E E E E E E E E   E E E E E E E E
|-----0-------0---|-----0-------0---|-----0-------0---|-----0-------0---|
|---1---1---1---1-|---1---1---1---1-|---1---1---1---1-|---1---1---1---1-|
|-----------------|-----------------|-----------------|-----------------|
|---------2-------|-3---------------|---------2-------|-3---------------|
|-0---------------|---------3-------|-0---------------|---------3-------|
|-----------------|-----------------|-----------------|-----------------|


  E E E E E E E E   E E E E E E E E   E E E E E E E E   E E E E E E E E
|-----0-------0---|-----0-------0---|-----0-------0---|-----0-------0---|
|---1---1---1---1-|---1---1---1---1-|---1---1---1---1-|---1---1---1---1-|
|-----------------|-----------------|-----------------|-----------------|
|---------2-------|-3---------------|---------2-------|-3---------------|
|-0---------------|---------3-------|-0---------------|---------3-------|
|-----------------|-----------------|-----------------|-----------------|
|
| Gtr II
| E E E E E E E E   E E E E E E E E   E E E E E E E E   E E E E E E E E
|-----------------|-----------------|-----------------|-----------------|
|-----------------|-----------------|-----------------|-----------------|
|-----------------|-----------------|-----------------|-----------------|
|-2-2-2-2---------|---------5-5-5-5-|-2-2-2-2---------|---------5-5-5-5-|
|-0-0-0-0-2-2-2-2-|-3-3-3-3-3-3-3-3-|-0-0-0-0-2-2-2-2-|-3-3-3-3-3-3-3-3-|
|---------0-0-0-0-|-1-1-1-1---------|---------0-0-0-0-|-1-1-1-1---------|


  E E E E E E E E   E E E E E E E E   W                 W
|-----0-------0---|-----0-------0---|-----------------|-----------------|
|---1---1---1---1-|---1---1---1---1-|-----------------|-----------------|
|-----------------|-----------------|-----------------|-----------------|
|---------2-------|-3---------------|-----------------|-----------------|
|-0---------------|---------3-------|-----------------|-----------------|
|-----------------|-----------------|-----------------|-----------------|
|
| E E E E E E E E   E E E E E E E E   E E E E E E E E   E E E E E E E E
|-----------------|-----------------|-----------------|-----------------|
|-----------------|-----------------|-----------------|-----------------|
|-----------------|-----------------|-----------------|-----------------|
|-2-2-2-2---------|---------5-5-5-5-|-4-4-4-4-4-4-4-4-|-3-3-3-3-3-3-3-3-|
|-0-0-0-0-2-2-2-2-|-3-3-3-3-3-3-3-3-|-2-2-2-2-2-2-2-2-|-1-1-1-1-1-1-1-1-|
|---------0-0-0-0-|-1-1-1-1---------|-----------------|-----------------|


  Gtr II
  E E E E E E E E   E E E E E E E E   E E E E E E E E   E E E E E E E E
|-----------------|-----------------|-----------------|-----------------|
|-----------------|-----------------|-----------------|-----------------|
|-----------------|-----------------|-----------------|-----------------|
|-2-2-2-2-2-2-2-2-|-2-2-2-2-2-2-2-2-|-----------------|-----------------|
|-0-0-0-0-0-0-0-0-|-0-0-0-0-0-0-0-0-|-3-3-3-3-3-3-3-3-|-5-5-5-5-5-5-5-5-|
|-----------------|-----------------|-1-1-1-1-1-1-1-1-|-3-3-3-3-3-3-3-3-|


  E E E E E E E E   E E E E E E E E   E E E E E E E E   E E E E E E E E
|-----------------|-----------------|-----------------|-----------------|
|-----------------|-----------------|-----------------|-----------------|
|-----------------|-----------------|-----------------|-----------------|
|-2-2-2-2-2-2-2-2-|-2-2-2-2-2-2-2-2-|-----------------|-----------------|
|-0-0-0-0-0-0-0-0-|-0-0-0-0-0-0-0-0-|-3-3-3-3-3-3-3-3-|-5-5-5-5-5-5-5-5-|
|-----------------|-----------------|-1-1-1-1-1-1-1-1-|-3-3-3-3-3-3-3-3-|


  E E E E E E E E   E E E E E E E E   E E E E E E E E   E E E E E E E E
|-----------------|-----------------|-----------------|-----------------|
|-----------------|-----------------|-----------------|-----------------|
|-----------------|-----------------|-----------------|-----------------|
|-2-2-2-2-2-2-2-2-|-2-2-2-2-2-2-2-2-|-----------------|-----------------|
|-0-0-0-0-0-0-0-0-|-0-0-0-0-0-0-0-0-|-3-3-3-3-3-3-3-3-|-5-5-5-5-5-5-5-5-|
|-----------------|-----------------|-1-1-1-1-1-1-1-1-|-3-3-3-3-3-3-3-3-|


  E E E E E E E E   E E E E E E E E   E E E E E E E E   E E E E E E E E
|-----------------|-----------------|-----------------|-----------------|
|-----------------|-----------------|-----------------|-----------------|
|-----------------|-----------------|-----------------|-----------------|
|-2-2-2-2-2-2-2-2-|-2-2-2-2-2-2-2-2-|-----------------|-----------------|
|-0-0-0-0-0-0-0-0-|-0-0-0-0-0-0-0-0-|-3-3-3-3-3-3-3-3-|-5-5-5-5-5-5-5-5-|
|-----------------|-----------------|-1-1-1-1-1-1-1-1-|-3-3-3-3-3-3-3-3-|


  E E E E E E E E   E E E E E E E E   E E E E E E E E   E E E E E E E E
|-----------------|-----------------|-----------------|-----------------|
|-----------------|-----------------|-----------------|-----------------|
|-----------------|-----------------|-----------------|-----------------|
|-2-2-2-2-2-2-2-2-|-2-2-2-2-2-2-2-2-|-----------------|-----------------|
|-0-0-0-0-0-0-0-0-|-0-0-0-0-0-0-0-0-|-3-3-3-3-3-3-3-3-|-5-5-5-5-5-5-5-5-|
|-----------------|-----------------|-1-1-1-1-1-1-1-1-|-3-3-3-3-3-3-3-3-|


  E E E E E E E E   E E E E E E E E   E E E E E E E E   E E E E E E E E
|-----------------|-----------------|-----------------|-----------------|
|-----------------|-----------------|-----------------|-----------------|
|-----------------|-----------------|-----------------|-----------------|
|-2-2-2-2-2-2-2-2-|-2-2-2-2-2-2-2-2-|-----------------|-----------------|
|-0-0-0-0-0-0-0-0-|-0-0-0-0-0-0-0-0-|-3-3-3-3-3-3-3-3-|-5-5-5-5-5-5-5-5-|
|-----------------|-----------------|-1-1-1-1-1-1-1-1-|-3-3-3-3-3-3-3-3-|


  E E E E E E E E   E E E E E E E E   E E E E E E E E   E E E E E E E E
|-----------------|-----------------|-----------------|-----------------|
|-----------------|-----------------|-----------------|-----------------|
|-----------------|-----------------|-----------------|-----------------|
|-2-2-2-2-2-2-2-2-|-2-2-2-2-2-2-2-2-|-----------------|-----------------|
|-0-0-0-0-0-0-0-0-|-0-0-0-0-0-0-0-0-|-3-3-3-3-3-3-3-3-|-5-5-5-5-5-5-5-5-|
|-----------------|-----------------|-1-1-1-1-1-1-1-1-|-3-3-3-3-3-3-3-3-|


  E E E E E E E E   E E E E E E E E   E E E E E E E E   E E E E E E E E
|-----------------|-----------------|-----------------|-----------------|
|-----------------|-----------------|-----------------|-----------------|
|-----------------|-----------------|-----------------|-----------------|
|-2-2-2-2-2-2-2-2-|-2-2-2-2-2-2-2-2-|-----------------|-----------------|
|-0-0-0-0-0-0-0-0-|-0-0-0-0-0-0-0-0-|-3-3-3-3-3-3-3-3-|-5-5-5-5-5-5-5-5-|
|-----------------|-----------------|-1-1-1-1-1-1-1-1-|-3-3-3-3-3-3-3-3-|


  Q  E E E E E E   Q.   E +Q   Q    Q  E E E E E E   Q.   E +Q   Q
|----------------|----------------|----------------|----------------|
|----------------|----------------|----------------|----------------|
|----------------|----------------|----------------|----------------|
|----------------|-2----0-(0)-----|----------------|----------------|
|-3--3-3-3-3-3-3-|-------------3--|-5--5-5-5-5-5-5-|-5----3-(3)--2--|
|----------------|----------------|----------------|----------------|


  Q  E E E E E E   Q.   E +Q   Q    Q.   E +Q   Q    Q.   E +Q   Q
|----------------|----------------|----------------|----------------|
|----------------|----------------|----------------|----------------|
|-2--2-2-2-2-2-2-|----------------|----------------|-2--------------|
|-0--0-0-0-0-0-0-|-0----2-(2)--3--|-5----4-(4)--2--|-0----5-(5)--4--|
|----------------|----------------|-3----2-(2)--0--|------3-(3)--2--|
|----------------|----------------|----------------|----------------|


  Q  E E E E E E   Q.   E +Q   Q    Q  E E E E E E   Q.   E +Q   Q
|----------------|----------------|----------------|----------------|
|----------------|----------------|----------------|----------------|
|----------------|-4----2-(2)-----|----------------|----------------|
|----------------|-2----0-(0)--5--|----------------|-7----5-(5)--4--|
|-3--3-3-3-3-3-3-|-------------3--|-5--5-5-5-5-5-5-|-5--------------|
|----------------|----------------|----------------|------8-(8)--7--|


  Q  E E E E E E   Q.   E +Q    Q     Q.   E +Q   Q    Q.   E +Q   Q
|----------------|-----------------|-----------------|----------------|
|----------------|-----------------|-----------------|----------------|
|----------------|-----------------|-----------------|----------------|
|-7--7-7-7-7-7-7-|-7----9-(9)--10--|-----------------|-7----5-(5)--4--|
|-5--5-5-5-5-5-5-|-5----7-(7)---8--|-10----9-(9)--7--|-5----3-(3)--2--|
|----------------|-----------------|--8----7-(7)--5--|----------------|


  Gtr I
  E E E E E E E E   E E E E E E E E   E E E E E E E E   E E E E E E E E
|-----0-------0---|-----0-------0---|-----0-------0---|-----0-------0---|
|---1---1---1---1-|---1---1---1---1-|---1---1---1---1-|---1---1---1---1-|
|-----------------|-----------------|-----------------|-----------------|
|---------2-------|-3---------------|---------2-------|-3---------------|
|-0---------------|---------3-------|-0---------------|---------3-------|
|-----------------|-----------------|-----------------|-----------------|
|
| Gtr II
| E E E E E E E E   E E E E E E E E   E E E E E E E E   E E E E E E E E
|-----------------|-----------------|-----------------|-----------------|
|-----------------|-----------------|-----------------|-----------------|
|-----------------|-----------------|-----------------|-----------------|
|-----------------|---------5-5-5-5-|-2-2-2-2---------|---------5-5-5-5-|
|-7-7-7-7-2-2-2-2-|-3-3-3-3-3-3-3-3-|-0-0-0-0-2-2-2-2-|-3-3-3-3-3-3-3-3-|
|-5-5-5-5-0-0-0-0-|-1-1-1-1---------|---------0-0-0-0-|-1-1-1-1---------|


  E E E E E E E E   E E E E E E E E   W                 W
|-----0-------0---|-----0-------0---|-----------------|-----------------|
|---1---1---1---1-|---1---1---1---1-|-----------------|-----------------|
|-----------------|-----------------|-----------------|-----------------|
|---------2-------|-3---------------|-----------------|-----------------|
|-0---------------|---------3-------|-----------------|-----------------|
|-----------------|-----------------|-----------------|-----------------|
|
| E E E E E E E E   E E E E E E E E   E E E E E E E E   E E E E E E E E
|-----------------|-----------------|-----------------|-----------------|
|-----------------|-----------------|-----------------|-----------------|
|-----------------|-----------------|-----------------|-----------------|
|-2-2-2-2---------|---------5-5-5-5-|-4-4-4-4-4-4-4-4-|-3-3-3-3-3-3-3-3-|
|-0-0-0-0-2-2-2-2-|-3-3-3-3-3-3-3-3-|-2-2-2-2-2-2-2-2-|-1-1-1-1-1-1-1-1-|
|---------0-0-0-0-|-1-1-1-1---------|-----------------|-----------------|


  Gtr II
  E E E E E E E E   E E E E E E E E   E E E E E E E E   E E E E E E E E
|-----------------|-----------------|-----------------|-----------------|
|-----------------|-----------------|-----------------|-----------------|
|-----------------|-----------------|-----------------|-----------------|
|-2-2-2-2-2-2-2-2-|-2-2-2-2-2-2-2-2-|-----------------|-----------------|
|-0-0-0-0-0-0-0-0-|-0-0-0-0-0-0-0-0-|-3-3-3-3-3-3-3-3-|-5-5-5-5-5-5-5-5-|
|-----------------|-----------------|-1-1-1-1-1-1-1-1-|-3-3-3-3-3-3-3-3-|


  E E E E E E E E   E E E E E E E E   E E E E E E E E   E E E E E E E E
|-----------------|-----------------|-----------------|-----------------|
|-----------------|-----------------|-----------------|-----------------|
|-----------------|-----------------|-----------------|-----------------|
|-2-2-2-2-2-2-2-2-|-2-2-2-2-2-2-2-2-|-----------------|-----------------|
|-0-0-0-0-0-0-0-0-|-0-0-0-0-0-0-0-0-|-3-3-3-3-3-3-3-3-|-5-5-5-5-5-5-5-5-|
|-----------------|-----------------|-1-1-1-1-1-1-1-1-|-3-3-3-3-3-3-3-3-|


  E E E E E E E E   E E E E E E E E   E E E E E E E E   E E E E E E E E
|-----------------|-----------------|-----------------|-----------------|
|-----------------|-----------------|-----------------|-----------------|
|-----------------|-----------------|-----------------|-----------------|
|-2-2-2-2-2-2-2-2-|-2-2-2-2-2-2-2-2-|-----------------|-----------------|
|-0-0-0-0-0-0-0-0-|-0-0-0-0-0-0-0-0-|-3-3-3-3-3-3-3-3-|-5-5-5-5-5-5-5-5-|
|-----------------|-----------------|-1-1-1-1-1-1-1-1-|-3-3-3-3-3-3-3-3-|


  E E E E E E E E   E E E E E E E E   E E E E E E E E   E E E E E E E E
|-----------------|-----------------|-----------------|-----------------|
|-----------------|-----------------|-----------------|-----------------|
|-----------------|-----------------|-----------------|-----------------|
|-2-2-2-2-2-2-2-2-|-2-2-2-2-2-2-2-2-|-----------------|-----------------|
|-0-0-0-0-0-0-0-0-|-0-0-0-0-0-0-0-0-|-3-3-3-3-3-3-3-3-|-5-5-5-5-5-5-5-5-|
|-----------------|-----------------|-1-1-1-1-1-1-1-1-|-3-3-3-3-3-3-3-3-|


  E E E E E E E E   E E E E E E E E   E E E E E E E E   E E E E E E E E
|-----------------|-----------------|-----------------|-----------------|
|-----------------|-----------------|-----------------|-----------------|
|-----------------|-----------------|-----------------|-----------------|
|-2-2-2-2-2-2-2-2-|-2-2-2-2-2-2-2-2-|-----------------|-----------------|
|-0-0-0-0-0-0-0-0-|-0-0-0-0-0-0-0-0-|-3-3-3-3-3-3-3-3-|-5-5-5-5-5-5-5-5-|
|-----------------|-----------------|-1-1-1-1-1-1-1-1-|-3-3-3-3-3-3-3-3-|


  E E E E E E E E   E E E E E E E E   E E E E E E E E   E E E E E E E E
|-----------------|-----------------|-----------------|-----------------|
|-----------------|-----------------|-----------------|-----------------|
|-----------------|-----------------|-----------------|-----------------|
|-2-2-2-2-2-2-2-2-|-2-2-2-2-2-2-2-2-|-----------------|-----------------|
|-0-0-0-0-0-0-0-0-|-0-0-0-0-0-0-0-0-|-3-3-3-3-3-3-3-3-|-5-5-5-5-5-5-5-5-|
|-----------------|-----------------|-1-1-1-1-1-1-1-1-|-3-3-3-3-3-3-3-3-|


  E E E E E E E E   E E E E E E E E   E E E E E E E E   E E E E E E E E
|-----------------|-----------------|-----------------|-----------------|
|-----------------|-----------------|-----------------|-----------------|
|-----------------|-----------------|-----------------|-----------------|
|-2-2-2-2-2-2-2-2-|-2-2-2-2-2-2-2-2-|-----------------|-----------------|
|-0-0-0-0-0-0-0-0-|-0-0-0-0-0-0-0-0-|-3-3-3-3-3-3-3-3-|-5-5-5-5-5-5-5-5-|
|-----------------|-----------------|-1-1-1-1-1-1-1-1-|-3-3-3-3-3-3-3-3-|


  E E E E E E E E   E E E E E E E E   E E E E E E E E   E E E E E E E E
|-----------------|-----------------|-----------------|-----------------|
|-----------------|-----------------|-----------------|-----------------|
|-----------------|-----------------|-----------------|-----------------|
|-2-2-2-2-2-2-2-2-|-2-2-2-2-2-2-2-2-|-----------------|-----------------|
|-0-0-0-0-0-0-0-0-|-0-0-0-0-0-0-0-0-|-3-3-3-3-3-3-3-3-|-5-5-5-5-5-5-5-5-|
|-----------------|-----------------|-1-1-1-1-1-1-1-1-|-3-3-3-3-3-3-3-3-|


  Q  E E E E E E   Q.   E +Q   Q    Q  E E E E E E   Q.   E +Q   Q
|----------------|----------------|----------------|----------------|
|----------------|----------------|----------------|----------------|
|----------------|----------------|----------------|----------------|
|----------------|-2----0-(0)-----|----------------|----------------|
|-3--3-3-3-3-3-3-|-------------3--|-5--5-5-5-5-5-5-|-5----3-(3)--2--|
|----------------|----------------|----------------|----------------|


  Q  E E E E E E   Q.   E +Q   Q    Q.   E +Q   Q    Q.   E +Q   Q
|----------------|----------------|----------------|----------------|
|----------------|----------------|----------------|----------------|
|-2--2-2-2-2-2-2-|----------------|----------------|-2--------------|
|-0--0-0-0-0-0-0-|-0----2-(2)--3--|-5----4-(4)--2--|-0----5-(5)--4--|
|----------------|----------------|-3----2-(2)--0--|------3-(3)--2--|
|----------------|----------------|----------------|----------------|


  Q  E E E E E E   Q.   E +Q   Q    Q  E E E E E E   Q.   E +Q   Q
|----------------|----------------|----------------|----------------|
|----------------|----------------|----------------|----------------|
|----------------|-4----2-(2)-----|----------------|----------------|
|----------------|-2----0-(0)--5--|----------------|-7----5-(5)--4--|
|-3--3-3-3-3-3-3-|-------------3--|-5--5-5-5-5-5-5-|-5----3-(3)--2--|
|----------------|----------------|----------------|----------------|


  Q  E E E E E E   Q.   E +Q    Q     Q.   E +Q   Q    Q.   E +Q   Q
|----------------|-----------------|-----------------|----------------|
|----------------|-----------------|-----------------|----------------|
|----------------|-----------------|-----------------|----------------|
|-7--7-7-7-7-7-7-|-7----9-(9)--10--|-----------------|-7----5-(5)--4--|
|-5--5-5-5-5-5-5-|-5----7-(7)---8--|-10----9-(9)--7--|-5----3-(3)--2--|
|----------------|-----------------|--8----7-(7)--5--|----------------|


  Gtr I
  E E E E E E E E   E E E E E E E E   E E E E E E E E   E E E E E E E E
|-----0-------0---|-----0-------0---|-----0-------0---|-----0-------0---|
|---1---1---1---1-|---1---1---1---1-|---1---1---1---1-|---1---1---1---1-|
|-----------------|-----------------|-----------------|-----------------|
|---------2-------|-3---------------|---------2-------|-3---------------|
|-0---------------|---------3-------|-0---------------|---------3-------|
|-----------------|-----------------|-----------------|-----------------|
|
| Gtr II
| E E E E E E E E   E E E E E E E E   E E E E E E E E   E E E E E E E E
|-----------------|-----------------|-----------------|-----------------|
|-----------------|-----------------|-----------------|-----------------|
|-----------------|-----------------|-----------------|-----------------|
|-----------------|---------5-5-5-5-|-2-2-2-2---------|---------5-5-5-5-|
|-7-7-7-7-2-2-2-2-|-3-3-3-3-3-3-3-3-|-0-0-0-0-2-2-2-2-|-3-3-3-3-3-3-3-3-|
|-5-5-5-5-0-0-0-0-|-1-1-1-1---------|---------0-0-0-0-|-1-1-1-1---------|


  E E E E E E E E   E E E E E E E E   E E E E E E E E   E E E E E E E E
|-----0-------0---|-----0-------0---|-----0-------0---|-----0-------0---|
|---1---1---1---1-|---1---1---1---1-|---1---1---1---1-|---1---1---1---1-|
|-----------------|-----------------|-----------------|-----------------|
|---------2-------|-3---------------|---------2-------|-3---------------|
|-0---------------|---------3-------|-0---------------|---------3-------|
|-----------------|-----------------|-----------------|-----------------|
|
| E E E E E E E E   E E E E E E E E   E E E E E E E E   E E E E E E E E
|-----------------|-----------------|-----------------|-----------------|
|-----------------|-----------------|-----------------|-----------------|
|-----------------|-----------------|-----------------|-----------------|
|-2-2-2-2---------|---------5-5-5-5-|-2-2-2-2---------|---------5-5-5-5-|
|-0-0-0-0-2-2-2-2-|-3-3-3-3-3-3-3-3-|-0-0-0-0-2-2-2-2-|-3-3-3-3-3-3-3-3-|
|---------0-0-0-0-|-1-1-1-1---------|---------0-0-0-0-|-1-1-1-1---------|


  E E E E E E E E   E E E E E E E E   E E E E E E E E   E E E E E E E E
|-----0-------0---|-----0-------0---|-----0-------0---|-----0-------0---|
|---1---1---1---1-|---1---1---1---1-|---1---1---1---1-|---1---1---1---1-|
|-----------------|-----------------|-----------------|-----------------|
|---------2-------|-3---------------|---------2-------|-3---------------|
|-0---------------|---------3-------|-0---------------|---------3-------|
|-----------------|-----------------|-----------------|-----------------|
|
| E E E E E E E E   E E E E E E E E   E E E E E E E E   E E E E E E E E
|-----------------|-----------------|-----------------|-----------------|
|-----------------|-----------------|-----------------|-----------------|
|-----------------|-----------------|-----------------|-----------------|
|-2-2-2-2---------|---------5-5-5-5-|-2-2-2-2---------|---------5-5-5-5-|
|-0-0-0-0-2-2-2-2-|-3-3-3-3-3-3-3-3-|-0-0-0-0-2-2-2-2-|-3-3-3-3-3-3-3-3-|
|---------0-0-0-0-|-1-1-1-1---------|---------0-0-0-0-|-1-1-1-1---------|


  E E E E E E E E   E E E E E E E E   E E E E E E E E   E E E E E E E E
|-----0-------0---|-----0-------0---|-----0-------0---|-----0-------0---|
|---1---1---1---1-|---1---1---1---1-|---1---1---1---1-|---1---1---1---1-|
|-----------------|-----------------|-----------------|-----------------|
|---------2-------|-3---------------|---------2-------|-3---------------|
|-0---------------|---------3-------|-0---------------|---------3-------|
|-----------------|-----------------|-----------------|-----------------|
|
| E E E E E E E E   E E E E E E E E   E E E E E E E E   E E E E E E E E
|-----------------|-----------------|-----------------|-----------------|
|-----------------|-----------------|-----------------|-----------------|
|-----------------|-----------------|-----------------|-----------------|
|-2-2-2-2---------|---------5-5-5-5-|-2-2-2-2---------|---------5-5-5-5-|
|-0-0-0-0-2-2-2-2-|-3-3-3-3-3-3-3-3-|-0-0-0-0-2-2-2-2-|-3-3-3-3-3-3-3-3-|
|---------0-0-0-0-|-1-1-1-1---------|---------0-0-0-0-|-1-1-1-1---------|


  E E E E E E E E   E E E E E E E E   E E E E E E E E   E E E E E E E E
|-----0-------0---|-----0-------0---|-----0-------0---|-----0-------0---|
|---1---1---1---1-|---1---1---1---1-|---1---1---1---1-|---1---1---1---1-|
|-----------------|-----------------|-----------------|-----------------|
|---------2-------|-3---------------|---------2-------|-3---------------|
|-0---------------|---------3-------|-0---------------|---------3-------|
|-----------------|-----------------|-----------------|-----------------|
|
| E E E E E E E E   E E E E E E E E   E E E E E E E E   E E E E E E E E
|-----------------|-----------------|-----------------|-----------------|
|-----------------|-----------------|-----------------|-----------------|
|-----------------|-----------------|-----------------|-----------------|
|-2-2-2-2---------|---------5-5-5-5-|-2-2-2-2---------|---------5-5-5-5-|
|-0-0-0-0-2-2-2-2-|-3-3-3-3-3-3-3-3-|-0-0-0-0-2-2-2-2-|-3-3-3-3-3-3-3-3-|
|---------0-0-0-0-|-1-1-1-1---------|---------0-0-0-0-|-1-1-1-1---------|


  E E E E E E E E   E E E E E E E E   E E E E E E E E   E E E E E E E E
|-----0-------0---|-----0-------0---|-----0-------0---|-----0-------0---|
|---1---1---1---1-|---1---1---1---1-|---1---1---1---1-|---1---1---1---1-|
|-----------------|-----------------|-----------------|-----------------|
|---------2-------|-3---------------|---------2-------|-3---------------|
|-0---------------|---------3-------|-0---------------|---------3-------|
|-----------------|-----------------|-----------------|-----------------|
|
| E E E E E E E E   E E E E E E E E   E E E E E E E E   E E E E E E E E
|-----------------|-----------------|-----------------|-----------------|
|-----------------|-----------------|-----------------|-----------------|
|-----------------|-----------------|-----------------|-----------------|
|-2-2-2-2---------|---------5-5-5-5-|-2-2-2-2---------|---------5-5-5-5-|
|-0-0-0-0-2-2-2-2-|-3-3-3-3-3-3-3-3-|-0-0-0-0-2-2-2-2-|-3-3-3-3-3-3-3-3-|
|---------0-0-0-0-|-1-1-1-1---------|---------0-0-0-0-|-1-1-1-1---------|


  Gtr II
   Q  Q  Q  E E     Q   Q   Q     E  E
|---------------|----------------------|
|---------------|----------------------|
|---------------|----------------------|
|---------------|----------------------|
|--0--0--0--0-0-|---0---0---0-----0--0-|
|---------------|----------------------|
|
| Gtr III
|  W               +H       E  E  E  E
|---------------|----------------------|
|---------------|----------------------|
|-14------------|-(14)-----14-16-17-16-|
|---------------|----------------------|
|---------------|----------------------|
|---------------|----------------------|


   Q     Q  Q  E E     Q   Q   Q     E  E
|------------------|----------------------|
|------------------|----------------------|
|------------------|----------------------|
|------------------|----------------------|
|------------------|----------------------|
|--1-----1--1--1-1-|---1---1---1-----1--1-|
|
|  W                  +H       E  E  E  E
|------------------|----------12-14-15-14-|
|-15b17------------|-(15)-----------------|
|------------------|----------------------|
|------------------|----------------------|
|------------------|----------------------|
|------------------|----------------------|


   Q     Q  Q  E E     Q   Q  Q  E E
|------------------|-----------------|
|------------------|-----------------|
|------------------|-----------------|
|------------------|-----------------|
|--0-----0--0--0-0-|---0---0--0--0-0-|
|------------------|-----------------|
|
|  W                  +W
|-15b17------------|-(15)------------|
|------------------|-----------------|
|------------------|-----------------|
|------------------|-----------------|
|------------------|-----------------|
|------------------|-----------------|


   Q           Q           Q           Q
|--------------------------------------------------|
|--------------------------------------------------|
|--------------------------------------------------|
|--------------------------------------------------|
|--3-----------3-----------2-----------2-----------|
|--------------------------------------------------|
|
|  S  S  S  S  S  S  S  S  S  S  S  S  S  S  S  S
|-12-12-12-12-14-12-15-12-17-12-12-12-12-12-12-12--|
|--------------------------------------------------|
|--------------------------------------------------|
|--------------------------------------------------|
|--------------------------------------------------|
|--------------------------------------------------|


   Q           Q           Q           Q
|-------------------------------------------------|
|-------------------------------------------------|
|-------------------------------------------------|
|-------------------------------------------------|
|--------------------------5-----------5----------|
|--3-----------3----------------------------------|
|
|  S  S  S  S  S  S  S  S  S  S  S  S  S  S  S  S
|-12-12-12-12-14-12-15-12-17-12-12-12-12-12-12-12-|
|-------------------------------------------------|
|-------------------------------------------------|
|-------------------------------------------------|
|-------------------------------------------------|
|-------------------------------------------------|


   Q  Q  Q  E E    Q  Q   Q   E E
|---------------|------------------|
|---------------|------------------|
|---------------|------------------|
|---------------|------------------|
|---------------|------------------|
|--5--5--5--5-5-|--5--5---5---5-5--|
|
|  W               H      Q   Q
|-22------------|-12-----17--15----|
|---------------|------------------|
|---------------|------------------|
|---------------|------------------|
|---------------|------------------|
|---------------|------------------|


   Q           Q           Q           E     E       Q  Q  Q  E E
|-------------------------------------------------|---------------|
|-------------------------------------------------|---------------|
|-------------------------------------------------|---------------|
|-------------------------------------------------|---------------|
|-------------------------------------------------|---------------|
|--1-----------1-----------1-----------1-----1----|--1--1--1--1-1-|
|
|  S  S  S  S  S  S  S  S  S  S  S  S  S  S  S  S    W
|-17-15----15-17-15----15-17-15----15-17-15----17-|-17------------|
|-------17----------17----------17----------17----|---------------|
|-------------------------------------------------|---------------|
|-------------------------------------------------|---------------|
|-------------------------------------------------|---------------|
|-------------------------------------------------|---------------|


   Q           Q           Q           E     E
|-------------------------------------------------|
|-------------------------------------------------|
|-------------------------------------------------|
|-------------------------------------------------|
|--0-----------0-----------0-----------0-----0----|
|-------------------------------------------------|
|
|  S  S  S  S  S  S  S  S  S  S  S  S  S  S  S  S
|-24-22-20----------------------------------------|
|----------24-22-20-------------------------------|
|-------------------24-22-21-19-------------------|
|-------------------------------22-21-19----------|
|----------------------------------------22-20-19-|
|-------------------------------------------------|


   Q           Q           Q           E     E
|-------------------------------------------------|
|-------------------------------------------------|
|-------------------------------------------------|
|-------------------------------------------------|
|--0-----------0-----------0-----------0-----0----|
|-------------------------------------------------|
|
|  S  S  S  S  S  S  S  S  S  S  S  S  S  S  S  S
|-------------------------------------------------|
|-------------------------------------------------|
|-------------------------------------------------|
|-------------------------------------------------|
|----------------------17----17-19-17-19-20-19-20-|
|-22-20-17-19-20-19-20----20----------------------|


   Q           Q           Q           Q
|-------------------------------------------------|
|-------------------------------------------------|
|-------------------------------------------------|
|-------------------------------------------------|
|--3-----------3-----------2-----------2----------|
|-------------------------------------------------|
|
|  S  S  S  S  S  S  S  S  S  S  S  S  S  S  S  S
|-------------------------------------------------|
|----------------------------------------------17-|
|-------------------16----16-17-16-17-19-17-19----|
|-17----17-19-17-19----19-------------------------|
|----20-------------------------------------------|
|-------------------------------------------------|


   Q           Q           Q           Q
|-------------------------------------------------|
|-------------------------------------------------|
|-------------------------------------------------|
|-------------------------------------------------|
|--------------------------5-----------5----------|
|--3-----------3----------------------------------|
|
|  S  S  S  S  S  S  S  S  S  S  S  S  S  S  S  S
|-------------------------17----17-19-17-19-17-15-|
|----17-18-17-18-20-18-20----20-------------------|
|-19----------------------------------------------|
|-------------------------------------------------|
|-------------------------------------------------|
|-------------------------------------------------|


  Gtr I
   E    E E E E E E E     E  E E E E E E E   E E E E E E E E   E E E E E E E E
|---------0-------0---|--------0-------0---|-----0-------0---|-----0-------0---|
|-------1---1---1---1-|------1---1---1---1-|---1---1---1---1-|---1---1---1---1-|
|---------------------|--------------------|-----------------|-----------------|
|-------------2-------|---3----------------|---------2-------|-3---------------|
|--0------------------|------------3-------|-0---------------|---------3-------|
|---------------------|--------------------|-----------------|-----------------|
|
| Gtr II
|  E    E E E E E E E     E  E E E E E E E   E E E E E E E E   E E E E E E E E
|---------------------|--------------------|-----------------|-----------------|
|---------------------|--------------------|-----------------|-----------------|
|---------------------|--------------------|-----------------|-----------------|
|---------------------|------------5-5-5-5-|-2-2-2-2---------|---------5-5-5-5-|
|--7----7-7-7-2-2-2-2-|---3--3-3-3-3-3-3-3-|-0-0-0-0-2-2-2-2-|-3-3-3-3-3-3-3-3-|
|--5----5-5-5-0-0-0-0-|---1--1-1-1---------|---------0-0-0-0-|-1-1-1-1---------|
|
| Gtr III
|  W                     +W                  W                 W
|-22b24---------------|-(22)---------------|-----------------|-----------------|
|---------------------|--------------------|-----------------|-----------------|
|---------------------|--------------------|-----------------|-----------------|
|---------------------|--------------------|-----------------|-----------------|
|---------------------|--------------------|-----------------|-----------------|
|---------------------|--------------------|-----------------|-----------------|


  E E E E E E E E   E E E E E E E E   E E E E E E E E   E E E E E E E E
|-----0-------0---|-----0-------0---|-----0-------0---|-----0-------0---|
|---1---1---1---1-|---1---1---1---1-|---1---1---1---1-|---1---1---1---1-|
|-----------------|-----------------|-----------------|-----------------|
|---------2-------|-3---------------|---------2-------|-3---------------|
|-0---------------|---------3-------|-0---------------|---------3-------|
|-----------------|-----------------|-----------------|-----------------|
|
| E E E E E E E E   E E E E E E E E   E E E E E E E E   E E E E E E E E
|-----------------|-----------------|-----------------|-----------------|
|-----------------|-----------------|-----------------|-----------------|
|-----------------|-----------------|-----------------|-----------------|
|-2-2-2-2---------|---------5-5-5-5-|-2-2-2-2---------|---------5-5-5-5-|
|-0-0-0-0-2-2-2-2-|-3-3-3-3-3-3-3-3-|-0-0-0-0-2-2-2-2-|-3-3-3-3-3-3-3-3-|
|---------0-0-0-0-|-1-1-1-1---------|---------0-0-0-0-|-1-1-1-1---------|


  E E E E E E E E   E E E E E E E E   E E E E E E E E   E E E E E E E E
|-----0-------0---|-----0-------0---|-----0-------0---|-----0-------0---|
|---1---1---1---1-|---1---1---1---1-|---1---1---1---1-|---1---1---1---1-|
|-----------------|-----------------|-----------------|-----------------|
|---------2-------|-3---------------|---------2-------|-3---------------|
|-0---------------|---------3-------|-0---------------|---------3-------|
|-----------------|-----------------|-----------------|-----------------|
|
| E E E E E E E E   E E E E E E E E   E E E E E E E E   E E E E E E E E
|-----------------|-----------------|-----------------|-----------------|
|-----------------|-----------------|-----------------|-----------------|
|-----------------|-----------------|-----------------|-----------------|
|-2-2-2-2---------|---------5-5-5-5-|-2-2-2-2---------|---------5-5-5-5-|
|-0-0-0-0-2-2-2-2-|-3-3-3-3-3-3-3-3-|-0-0-0-0-2-2-2-2-|-3-3-3-3-3-3-3-3-|
|---------0-0-0-0-|-1-1-1-1---------|---------0-0-0-0-|-1-1-1-1---------|


  E E E E E E E E   E E E E E E E E   E E E E E E E E   E E E E E E E E
|-----0-------0---|-----0-------0---|-----0-------0---|-----0-------0---|
|---1---1---1---1-|---1---1---1---1-|---1---1---1---1-|---1---1---1---1-|
|-----------------|-----------------|-----------------|-----------------|
|---------2-------|-3---------------|---------2-------|-3---------------|
|-0---------------|---------3-------|-0---------------|---------3-------|
|-----------------|-----------------|-----------------|-----------------|
|
| E E E E E E E E   E E E E E E E E   E E E E E E E E   E E E E E E E E
|-----------------|-----------------|-----------------|-----------------|
|-----------------|-----------------|-----------------|-----------------|
|-----------------|-----------------|-----------------|-----------------|
|-2-2-2-2---------|---------5-5-5-5-|-2-2-2-2---------|---------5-5-5-5-|
|-0-0-0-0-2-2-2-2-|-3-3-3-3-3-3-3-3-|-0-0-0-0-2-2-2-2-|-3-3-3-3-3-3-3-3-|
|---------0-0-0-0-|-1-1-1-1---------|---------0-0-0-0-|-1-1-1-1---------|


  E E E E E E E E   E E E E E E E E   Q  E E E E E E    Q   E E E E E E
|-----0-------0---|-----0-------0---|--------0-------|----------0-------|
|---1---1---1---1-|---1---1---1---1-|------1---1---1-|--------1---1---1-|
|-----------------|-----------------|------------2---|--------------2---|
|---------2-------|-3---------------|----------------|------------------|
|-0---------------|---------3-------|-0--0-----------|--0---0-----------|
|-----------------|-----------------|----------------|------------------|
|
| E E E E E E E E   E E E E E E E E   W                +W
|-----------------|-----------------|----------------|------------------|
|-----------------|-----------------|----------------|------------------|
|-----------------|-----------------|----------------|------------------|
|-2-2-2-2---------|---------5-5-5-5-|-2--------------|-(2)--------------|
|-0-0-0-0-2-2-2-2-|-3-3-3-3-3-3-3-3-|-0--------------|-(0)--------------|
|---------0-0-0-0-|-1-1-1-1---------|----------------|------------------|


  Q  E E E E E E    Q   E E E E E E   Q  E E E E E E    Q   E E E E E E
|--------0-------|----------0-------|--------2-------|----------2-------|
|------1---1---1-|--------1---1---1-|------3---3---3-|--------3---3---3-|
|------------2---|--------------2---|------------2---|--------------2---|
|----------------|------------------|-0--0-----------|--0---0-----------|
|-3--3-----------|--3---3-----------|----------------|------------------|
|----------------|------------------|----------------|------------------|
|
| W                +H       Q   Q     W                +W
|----------------|------------------|----------------|------------------|
|----------------|------------------|----------------|------------------|
|----------------|----------4-------|-2--------------|-(2)--------------|
|-5--------------|-(5)------2---5---|-0--------------|-(0)--------------|
|-3--------------|-(3)----------3---|----------------|------------------|
|----------------|------------------|----------------|------------------|


  Q  E E E E E E   Q  E E E E E E   W
|--------0-------|--------0-------|-0----*|
|------1---1---1-|------1---1---1-|-1----*|
|------------2---|------------0---|-2----*|
|-3--3-----------|----------------|-2----*|
|----------------|----------------|-0----*|
|----------------|-3--3-----------|------*|
|
| H      Q   Q     W                W
|----------------|----------------|------*|
|----------------|----------------|------*|
|-5------4---2---|----------------|------*|
|-3------2---0---|----------------|-2----*|
|----------------|-5--------------|-0----*|
|----------------|-3--------------|------*|



Duration Legend
---------------
W - whole; H - half; Q - quarter; E - 8th; S - 16th; T - 32nd; X - 64th; a - acciaccatura
+ - note tied to previous; . - note dotted; .. - note double dotted
Uncapitalized letters represent notes that are staccato (1/2 duration)
Irregular groupings are notated above the duration line
Duration letters will always appear directly above the note/fret number it represents the
duration for.  Duration letters with no fret number below them represent rests.  Multi-
bar rests are notated in the form Wxn, where n is the number of bars to rest for.  Low
melody durations appear below the staff

Tablature Legend
----------------
 h   - hammer-on
 p   - pull-off
 b   - bend
 pb  - pre-bend
 r   - bend release (if no number after the r, then release immediately)
 /\  - slide into or out of (from/to "nowhere")
 s   - legato slide
 S   - shift slide
 - natural harmonic
[n]  - artificial harmonic
n(n) - tapped harmonic
 ~   - vibrato
 tr  - trill
 T   - tap
 TP  - trem. picking
 PM  - palm muting
\n/  - tremolo bar dip; n = amount to dip
 \n  - tremolo bar down
 n/  - tremolo bar up
/n\  - tremolo bar inverted dip
 =   - hold bend; also acts as connecting device for hammers/pulls
 <> - volume swell (louder/softer)
 x   - on rhythm slash represents muted slash
 o   - on rhythm slash represents single note slash

Misc Legend
-----------
 |  - bar
||  - double bar
||o - repeat start
o|| - repeat end
*|  - double bar (ending)
 :  - bar (freetime)
 $  - Segno
 &  - Coda
Tempo markers -  = BPM(8/16=s8/s16), where s8 = swing 8ths, s16 = swing 16ths





Comments


Popular Bathory tabs & chords
Blood Fire Death Intro Tabs
Die In Fire Tabs
Massacre Tabs
Necromansy Tabs
Raise The Dead Tabs
Sacrifice Tabs
The Ravens Tabs
The Rite Of Darkness Tabs
The Wheel Of Sun Intro Tabs
Vinterblot Tabs


Song lyrics



↑ Back to top | Tablatures and chords are parodies/interpretations of the original songs. You may use it for private study, scholarship, research or language learning purposes only
© 2014 AZChords.com Contact us | Privacy policy | DMCA | Add/correct tabs | Request tabs | Top 50 tabs