» » »

Bathory, In Nomine Satanas Tabs (ver.1)

Artists:  A B C D E F G H I J K L M N O P Q R S T U V W X Y Z # 

In Nomine Satanas Tabs (ver.1)

Bathory Tabs
 Rating:
4/5 (4 votes)
In Nomine Satanas lessons Tabs too difficult? Try these video lessons and learn fast
1
                |----------------------------------------|
|-----------------Bathory----------------|
|------------In-Nomine-Satanas-----------|
|------------Jubileum-Volume-3-----------|
|----------------------------------------|

Tempo: 130 BPM (approx.)
Tuning: Drop D (D A D G B E)

-----
-----
This is a track from the Jubileum Volume 3 record and was never released before.
Also this song is basically only one riff, he used it during the whole song which 
goes about 6 minutes and 26 seconds.
I choose Drop D because it's easier to play. 
I want to mention that the production is not very good, so it's hard to hear the 
distorted chords he plays.

This Main Riff would be later used on the "Twilight Of The Gods" record by Bathory 
in the song "Bond Of Blood". ;-)

------
Riffs:
------


Intro Parts:
------------
                                                                       
Acoustic Guitar Intro (maybe with some variations, I'm not sure)

      E E E E E E E E   E E E E Q E E E  E E E E E E E E   E E E E E E E E 2x
E|-|------------------|----------------|-----------1-----|------------------|
B|-|----------3-------|---------3------|---------1---1---|---------4--------|
G|4|o-------2---2-----|-------2----2---|-------2---------|-------3---3-----o|
D|4|o-----0-------0---|-----0--------0-|-----0---------3-|-----1-------1---o|
A|-|----0-----------0-|---0------------|---0-------------|---1-----------1--|
D|-|--0---------------|-0--------------|-0---------------|-1----------------|

                                                                                       
                                                                   during the fourth repeat, 
Distortion Guitar Intro (2x quite in the background, 2x louder)    replace the last bar with this

      H      H          W                H       H         W               4x           Q  Q  H
E|-|------------------|----------------|-----------------|------------------|         |---------|
B|-|------------------|----------------|-----------------|------------------|         |---------|
G|4|o-2------3--------|-2--------------|-(2)-----5-------|-3---------------o|         |-------3-|
D|4|o-0------1--------|-0--------------|-(0)-----3-------|-1---------------o|         |-0--1--1-|
A|-|--0------1--------|-0--------------|-(0)-----3-------|-1----------------|         |-0--1--1-|
D|-|--0------1--------|-0--------------|-(0)-----3-------|-1----------------|         |-0--1----|




Distortion Guitar Main Riff (maybe with some variatons during this song)

     H  H   H  Q  Q   H  H   H  Q  Q   H  H   H  Q  Q   H  H   Q  Q  H
E|-|------|---------|------|---------|------|---------|------|---------|
B|-|------|---------|------|---------|------|---------|------|---------|
G|4|-2--3-|-2--2----|-2--5-|-2--2----|-2--3-|-2--2----|-2--5-|-------3-|
D|4|-0--1-|-0--0----|-0--3-|-0--0----|-0--1-|-0--0----|-0--3-|-0--1--1-|
A|-|-0--1-|-0--0--1-|-0--3-|-0--0--3-|-0--1-|-0--0--1-|-0--3-|-0--1--1-|
D|-|-0--1-|-0--0--1-|-0--3-|-0--0--3-|-0--1-|-0--0--1-|-0--3-|-0--1----|


Basically... that's it.

----------
Structure:
----------
For this song I'm not able to write detailed things here, just play the "Main 
Part" over and over again. 

About 5:35 minutes you have to play only the first 2 bars of the "Main Part" until 
the end of the song.

Some variations you have to figure out by yourself, but it's not hard.

------------
Description:
------------
W   - whole notes
H   - half notes
Q   - quarter notes
E   - 8th notes

|4|
|4| - Time Signature (e.g. stands for 4/4)

|o  - repeat start
o|  - repeat end
            
Submit corrections

comments powered by Disqus
↑ Back to top | Bathory Tabs for In Nomine Satanas. Lyrics for acoustic guitar and electric guitar. 1 Tablatures and chords are parodies/interpretations of the original songs. You may use it for private study, scholarship, research or language learning purposes only