» » »

Hades Tabs (ver.1)

Artists:  A B C D E F G H I J K L M N O P Q R S T U V W X Y Z # 

Hades Tabs (ver.1)

Bathory
Rating:
0/5 (0 votes)

Hard to play? Try these video lessons and learn fast.
                Bathory:Hades

Another good song by Bathory,a song from their debut LP from 1984

e:---------------------------------------------------------------|
B:---------------------------------------------------------------|
G:---------------------------------------------------------------|
D:-2-2323232---9-10----2-2323232-5-7-----------------------------|
A:-------------7-8---------------3-5--x8-------------------------|
E:---------------------------------------------------------------|


e:---------------------------------------------------------------|
B:---------------------------------------------------------------|
G:---------------------------------------------------------------|
D:---------------------------------------------------------------|
A:-999999-10-12--999999--10-12--9999999--10-12--77777-55555------|
E:-777777-8--10--777777--8--10--7777777--8--10--55555-33333------|

Repeat Riff 1 again then repeat riff 2 again.


e:---------------------------------------------------------------|
B:---------------------------------------------------------------|
G:---------------------------------------------------------------|
D:-7676767-7676767-7676767-7676767--------------------7--7--7----|
A:-------------------------------------3--x4----------7--7--7----|
E:-------------------------------------1--------------5--5--5----|

e:---------------------------------------------------------------|
B:---------------------------------------------------------------|
G:---------------------------------------------------------------|
D:------------------------------------------------9--7--9--7-----|
A:---10-9-10-9-10-9--7777777--x4--10-9-10-9-10-9--7--5--7--5-----|
E:---8--7-8--7-8--7--5555555------8--7-8--7-8--7-----------------|


e:----------------------------------------------------------------|
B:----------------------------------------------------------------|
G:----------------------------------------------------------------|
D:----------------------------------------------------------------|
A:-10101010-9999-10101010-12121212-10101010-9999--10101010-8-8----|x2
E:-8-8-8-8--7777-8-8-8-9--10101010-8-8-8-8--7777--8-8-8-8--6-6----|

Riff 1 x 2 then last chord at the end is a,E5

The End.
            
Hard to play? Try these video lessons and learn fast. | Correct




comments powered by Disqus
↑ Back to top | Tablatures and chords are parodies/interpretations of the original songs. You may use it for private study, scholarship, research or language learning purposes only