» » »

Bat For Lashes, Daniel Bass tabs (ver.1)

Artists:  A B C D E F G H I J K L M N O P Q R S T U V W X Y Z # 

Daniel Bass tabs (ver.1)

Bat For Lashes Tabs
 Rating:
4/5 (4 votes)
Daniel lessons Tabs too difficult? Try these video lessons and learn fast
                
Starts at 0:22


G|----------------------------------------------------------|
D|----------------------------------------------------------|
A|---------------------------------------------5-5--5-------|
E|---5-5--5-5-5--5-8-8--8-3-3--3-1-1--1-1-1--1--------3-3--3|


G|----------------------------------------------------------|
D|----------------------------------------------------------|
A|---------------------------------------------7-7--7-5-5--5|
E|---5-5--5-5-5--5-8-8--8-3-3--3-1-1--1-1-1--1--------------|

And all over again all the song

Please contact me if there's anything worng, that's my first TAB.  =)
            
Submit corrections

comments powered by Disqus
↑ Back to top | Bat For Lashes Bass for Daniel. Lyrics for acoustic guitar and electric guitar. Tablatures and chords are parodies/interpretations of the original songs. You may use it for private study, scholarship, research or language learning purposes only