» » »

Bat For Lashes, Daniel Tabs (ver.1)

Artists:  A B C D E F G H I J K L M N O P Q R S T U V W X Y Z # 

Daniel Tabs (ver.1)

Bat For Lashes Tabs
 Rating:
4/5 (4 votes)
Daniel lessons Tabs too difficult? Try these video lessons and learn fast
1
                
I think bass plays some variatons of these three notes the whole song :
G|-------------------------------------------------------|
D|-1-1-1-1-----------------------------------------------|
A|----------4-4-2-2-4-4----------------------------------|
E|-------------------------------------------------------|

chorus (guitar written to vocals)
e|-------------------------------------------------------|
B|--------------------------------------------2-4-2-0----|
G|--1--4--3------------------------1--4--3---------------|
D|----------4--1---------------------------4-------------|
A|----------------4-2--2-2-4-4---------------------------|
E|-------------------------------------------------------|

the violin part ('round 2nd minute):

e|------------2---------------------------------------------------------------|
B|-------2-4---------------------------------2-4-5----------------------------|
G|-1-3-4----------1-3-4-3-4-6-3--------1-3-4----------1-3-4-3-4-6-4-4---------|
D|------------------------------4---------------------------------------------|
A|----------------------------------------------------------------------------|
E|----------------------------------------------------------------------------|

chorus (guitar written to vocals)
e|-------------------------------------------------------|
B|--------------------------------------------2-4-2-0----|
G|--1--4--3------------------------1--4--3---------------|
D|----------4--1---------------------------4-------------|
A|----------------4-2--2-2-4-4---------------------------|
E|-------------------------------------------------------|


lyrics:

Daniel when I first saw you
I knew that you had a flame in your heart
And under our blue skies
Marble movie skies
I found a home in your eyes
We'll never be apart

And when the fires came
The smell of cinders and rain
Perfumed almost everything
We laughed and laughed and laughed

And in the golden blue
Crying took me to
The darkest place she knew
And set fire to my heart

When I run in the dark, Daniel
To a place that's lost
Under a sheet of rain in my heart
Daniel I dream of home

But in a goodbye bed
With my arms around your neck
Into our love the tears crept
Just catch in the eye of the storm

And as my heart ran round
My dreams pulled me from the ground
Forever to search for the flame
For home again
For home again

When I run in the dark, Daniel
To a place that's lost
Under a sheet of rain in my heart
I dream of home

When I run in the dark, Daniel
To a place that's worst
Under a sheet of rain in my heart
Daniel I dream of home
(repeat last)


Enjoy;-)
            
Submit corrections

comments powered by Disqus
↑ Back to top | Bat For Lashes Tabs for Daniel. Lyrics for acoustic guitar and electric guitar. 1 Tablatures and chords are parodies/interpretations of the original songs. You may use it for private study, scholarship, research or language learning purposes only