>
 >
Bullhead's Lament

Bullhead's Lament Guitar Tabs

Baroness - Bullhead's Lament chords, tabs, tablatures, lyrics

Guitar lessons | Add/correct | Request | Top 50 tabs Artists:  A B C D E F G H I J K L M N O P Q R S T U V W X Y Z 0-9

Bullhead's Lament Guitar Tabs – Baroness

CD, Sheet music, Poster

Do you like Bullhead's Lament? Share with your friends now
Tabs
Baroness - Bullhead's Lament

Blue Album
Track #12

Standard Tuning

Guitar1
|------------------------------------------------------------|
|--------8--------------8-------------8--------------8-------|
|------8---7-8--------8---7-8-------8---7-8--------8---7-8---|
|---10-------------10------------10-------------10-----------|
|------------------------------------------------------------|
|-8--------------8-------------8--------------8--------------| x3

Guitar2 enters (0:11)
|--------10------------10------------10------------10--------|
|------8----8--------8----8--------8----8--------8----8------|
|----8--------8----8--------8----8--------8----8--------8----|
|-10------------10------------10------------10---------------|
|------------------------------------------------------------|
|------------------------------------------------------------| x2

Guitar2 (0:31)
|------------------8----s8--------------------|
|-----------s8-------11----11--9-8------------|
|-8----8-10-----------------------------------|
|---------------------------------------------|
|---------------------------------------------|
|---------------------------------------------|

|---------------------------------------------|
|---------------------------------------------|
|-8----8-7-----------------------5--7--8------|
|----------8-----8-10-8-----------------------|
|---------------------------5s6---------------|
|---------------------------------------------|

Guitar3 enters (0:31)
|---------------------------------------------|
|---------------------------------------------|
|-------------------5---s5--------------------|
|-----------s5--------8-----8--6-5------------|
|-6----6--8-----------------------------------|
|---------------------------------------------|

|---------------------------------------------|
|---------------------------------------------|
|---------------------------------------------|
|---------------------------------------------|
|-6----6-5-----------------------3--5--6------|
|----------6-----6-8--6-----------------------|  

Guitar2 plays this 3 times
|------------------8----s8--------------------|
|-----------s8-------11----11--9-8------------|
|-8----8-10-----------------------------------|
|---------------------------------------------|
|---------------------------------------------|
|---------------------------------------------|

|-----------------------------------------------|
|----------------------------------8-9----------|
|-8----8-7----------7-8-10--7-8-10-----5--7--8--|
|----------8----810-----------------------------|
|-----------------------------------------------|
|-----------------------------------------------|

Guitar3 plays this 3 times 
|---------------------------------------------|
|---------------------------------------------|
|-------------------5---s5--------------------|
|-----------s5--------8-----8--6-5------------|
|-6----6--8-----------------------------------|
|---------------------------------------------|

|-----------------------------------------------|
|-----------------------------------------------|
|-----------------------------------------------|
|--------------------------------5-6------------|
|-6----6-5----------5-6-8--5-6-8-------3--5--6--|
|----------6----6-8-----------------------------|

Guitar4 (Distorttion) plays this 3 times (0:52)
|--------------------------------------------------------------|
|---8----9-8---------------------------------------------------|
|s8----------8------------7-7h8p7-5-7-5-7-7-7h8p7-5-7-5-7-8----|
|--------------8-5----5-8--------------------------------------|
|--------------------------------------------------------------|
|--------------------------------------------------------------|

|--------------------------------------------------------------|
|----------------------------------------------8-9-11b-8h9p8---|
|-7h8-----7h8p7-5---------------7-8-10--7-8-10-----------------|
|-----------------8-5-s5----810--------------------------------|
|--------------------------------------------------------------|
|--------------------------------------------------------------| 

Guitar5 enters and plays the octave (1:03)
|--------------------------------------------------------------|
|--------------------------------------------------------------|
|--------------------------------------------------------------|
|---------------------------------------------5-6--8b--5h6p5---|
|-5h6-----5h6p5-3---------------5-6-8---5-6-8------------------|
|-----------------6-3-s3----6-8--------------------------------|

Guitar5 plays this 2 times (1:24)
|--------------------------------------------------------------|
|--------------------------------------------------------------|
|--------------------------------------------------------------|
|-5------6-5---------------------------------------------------|
|------------6------------5-5h6p5-3-5-3-5-5-5h6p5-3-5-3-5-6----|
|--------------6-3----3-5--------------------------------------|


|--------------------------------------------------------------|
|--------------------------------------------------------------|
|--------------------------------------------------------------|
|---------------------------------------------5-6--8b--5h6p5---|
|-5h6-----5h6p5-3---------------5-6-8---5-6-8------------------|
|-----------------6-3-s3----6-8--------------------------------|

Guitar5 enters (1:35)
|---------------------------|
|-16---18-16----------------|
|------------15-------------|
|---------------17-13-------|
|---------------------------|
|---------------------------|

Guitar1 (1:55)
|------------------------------------------------------------|
|--------8--------------8-------------8--------------8-------|
|------8---7-8--------8---7-8-------8---7-8--------8---7-8---|
|---10-------------10------------10-------------10-----------|
|------------------------------------------------------------|
|-8--------------8-------------8--------------8--------------| x3

Guitar2 (1:55)
|--------10------------10------------10------------10--------|
|------8----8--------8----8--------8----8--------8----8------|
|----8--------8----8--------8----8--------8----8--------8----|
|-10------------10------------10------------10---------------|
|------------------------------------------------------------|
|------------------------------------------------------------| x3

|-10~~~~--------------------------------------|
|--8~~~~--------------------------------------|
|--8~~~~--------------------------------------|
|-10~~~~--------------------------------------|
|---------------------------------------------|
|---------------------------------------------|

Some parts still missing (Guitar 1)
Comment please





Comments


Popular Baroness tabs & chords
Swollen And Halo 2 Bass Tabs
Sea Lungs Chords
A Horse Called Golgotha 1 Tabs
Grad Tabs
Grad 1 Tabs
Grad 2 Tabs
March To The Sea Tabs
Stretchmarker Intro Tabs
Teeth Of A Cogwheel Intro Tabs
Wailing Wintry Wind Tabs


Song lyrics



↑ Back to top | Tablatures and chords are parodies/interpretations of the original songs. You may use it for private study, scholarship, research or language learning purposes only
© 2014 AZChords.com Contact us | Privacy policy | DMCA | Add/correct tabs | Request tabs | Top 50 tabs