» » »

Baroness, March To The Sea Tabs (ver.1)

Artists:  A B C D E F G H I J K L M N O P Q R S T U V W X Y Z # 

March To The Sea Tabs (ver.1)

Baroness Tabs
 Rating:
4/5 (4 votes)
March To The Sea lessons Tabs too difficult? Try these video lessons and learn fast
                Tuning: D Tuning
I advice to listen the song for a correct strumming ;)

INTRO

|----------------5-3-2-0-------------------|
|-3-0h3p0------3---------0-----------------|
|------------------------------------------|    x2
|------------------------------------------|
|------------------------------------------|
|-3-------3-3--3-2-2-0-----2~--------------|

VERSE

1st Guitar (John Baizley)
|-------------------------------------------------------------|
|-------------------------------------------------------------|
|-------------------------------------------------------------|
|-------------------------------------------------------------| x4
|-------------------------------------------------------------|
|3333333333333333-777777-12121212121212121212121212--14141414-|

2nd Guitar (Peter Adams) [2nd part of the verse]
|------------------------------------------------------------|
|------------------------------------------------------------|
|------------------------------------------------------------|  x2
|-9999999999999999-1212121212-99999999999999999-7777777------|
|------------------------------------------------------------|
|------------------------------------------------------------|

CHORUS

|--------------------------------|
|--------------------------------|
|--------------------------------|  X2
|-5-----9----14-----12-----------|
|-5-X12-9-X6-14-X12-12-X6--------|
|-3-----7----12-----10-----------|

VERSE

1st Guitar (John Baizley)
|-------------------------------------------------------------|
|-------------------------------------------------------------|
|-------------------------------------------------------------|
|-------------------------------------------------------------| x4
|-------------------------------------------------------------|
|3333333333333333-777777-12121212121212121212121212--14141414-|


2nd Guitar (Peter Adams) [2nd part of the verse - this is different from the 1st verse]
|---------------------------------------------------------------|
|---------------------------------------------------------------|
|---------------------------------------------------------------|
|-9999999999999999-1212121212-99999999999999999-1212121212------|
|---------------------------------------------------------------|
|---------------------------------------------------------------|

|---------------------------------------------------------------|
|---------------------------------------------------------------|
|---------------------------------------------------------------|
|-9999999999999999-1212121212-99999999999999999-7777777---------|
|---------------------------------------------------------------|
|---------------------------------------------------------------|

CHORUS

|--------------------------------|
|--------------------------------|
|--------------------------------|  X2
|-5-----9----14-----12-----------|
|-5-X12-9-X6-14-X12-12-X6--------|
|-3-----7----12-----10-----------|


BREAK

|------------------3-2-0-------------------|
|-3-0h3p0------3-0-------0-----------------|
|------------------------------------------|    x2
|------------------------------------------|
|------------------------------------------|
|-3-------3-3--3-2-2-0-----2~--------------|

SOLO

|---------------------15-14-14h15p14--------------|
|-15--12h15p12--15-12----------------12--13-------|
|-------------------------------------------------|
|-------------------------------------------------|
|-------------------------------------------------|
|-------------------------------------------------|

|---------------------16b-16b-(15)----------------|
|-15--12h14p12--15-12--------------12-13----------|
|-------------------------------------------------|
|-------------------------------------------------|
|-------------------------------------------------|
|-------------------------------------------------|

CHORUS

|--------------------------------|
|--------------------------------|
|--------------------------------|  X2
|-5-----9----14-----12-----------|
|-5-X12-9-X6-14-X12-12-X6--------|
|-3-----7----12-----10-----------|
            
Submit corrections

comments powered by Disqus
↑ Back to top | Baroness Tabs for March To The Sea. Lyrics for acoustic guitar and electric guitar. Tablatures and chords are parodies/interpretations of the original songs. You may use it for private study, scholarship, research or language learning purposes only