» » »

A Horse Called Golgotha Tabs (ver.2)

Artists:  A B C D E F G H I J K L M N O P Q R S T U V W X Y Z # 

A Horse Called Golgotha Tabs (ver.2)

Baroness
Rating:
0/5 (0 votes)

Hard to play? Try these video lessons and learn fast.
                Please note  I transcribed this from a video so this wont be exactly correct

Tuning: DGCFAD

Guitar 1                                                                             (second time)
---------------------------------------I----|I
-8--10--x---12--8--x--13--12--x--8--7--I----|I
-9--11--x---12--9--x--12--12--x--7--7--I----|I
-x--x---x---x---x--x--x---x---x--x--x--I----|I
-7--9---x---10--7--x--10--10--x--5--5--I6---|I
---------------------------------------I----|I


Guitar 1
-------------------------------------0-10-12-0-14-15-0-17-0-15-0----------|x2
--0-7-8-0-7-8-0-10-12-0-8-10-0-11-12-----------------------------17-16----|
--------------------------------------------------------------------------|
--------------------------------------------------------------------------|
--------------------------------------------------------------------------|
--------------------------------------------------------------------------|

3rd time end with
-0-10-12-0-14-15-0-17-0-15---------------|
---------------------------16-17-19-20---|
-----------------------------------------|
-----------------------------------------|
-----------------------------------------|
-----------------------------------------|

4th time like the first 2 then then double up it up for the last one.


Pre-Verse x3
--------------------------------------|I
--------------------------------------|I
--------------------------------------|I
--------------------------------------|I
7777766666666655555544444444433333-2-I
-------------------------------------I

1st end                                          2nd end                          3rd end
-----------------------I-----------------I----------------|
-----------------------I-----------------I--5--4--5/7-----|
-----------------------I-----------------I--5--4--5/7-----|
------------------7----I-----------4-----I--5--4--5/7-----|
-------3---------------I-------------6---I----------------|
-0-2-3---5-3--5/7------I-0-2-0-5-3-------I-0--0--0--------|


-------------------------------------------------------------------------|
-88888101010101010101010-------------------------------------------------|
-------------------------999991212121212121212---------------------------|
-----------------------------------------------9999912121212121212121212-|
-------------------------------------------------------------------------|
-------------------------------------------------------------------------|

-------------|
-0-5-7----7--|
-------0---8-|
---------9---|
-------------|
-------------|

Verse
-----------------I-------------------------------|
-----------------I-------------------------------|
-13----14--------I-------------------------------|
-x-----x-----2---I----------------------2--------|
-11----12----2---I----------------------2--------|
-------------0---I-xxxxxxxxxxxxxxxxxxxx--0-------|


Chorus is the same as the intro chord progression

At the end of the chorus
---------------------------|
-7-8-7---7-----------------|
-------9---9-7------7-9-11-|
---------------10-9--------|
---------------------------|
---------------------------|

Verse again

Before first solo
---------------------|
---------------------|
-9--10--7--5--4-7----|
-9--10--7--5--4-7----|
-7--8---5--3--2-5----|
---------------------|


SOLO!!!
-30050070080070507050405020405070-300500700800705070504050204020---|
-------------------------------------------------------------------|
-------------------------------------------------------------------|
-------------------------------------------------------------------|
-------------------------------------------------------------------|
-------------------------------------------------------------------|

----------010121200140120----------0101212001401201401201012090100709---|
-081001012----------------081001012-------------------------------------|
------------------------------------------------------------------------|
------------------------------------------------------------------------|
------------------------------------------------------------------------|
------------------------------------------------------------------------|

-------------------------------------16-----|I
-12-14-15-14-15-17-15-17-19-20-17-19--------|I
--------------------------------------------|I
--------------------------------------------|I
--------------------------------------------|I
--------------------------------------------|I

Chrous Again with same fill at the end

Can't figure out the other solo

Sry thats all I've got for now
            
Hard to play? Try these video lessons and learn fast. | Correct




comments powered by Disqus
↑ Back to top | Tablatures and chords are parodies/interpretations of the original songs. You may use it for private study, scholarship, research or language learning purposes only