» » »

Barlow Girl, Psalm 73 My Gods Enough Tabs (ver.1)

Artists:  A B C D E F G H I J K L M N O P Q R S T U V W X Y Z # 

Psalm 73 My Gods Enough Tabs (ver.1)

Barlow Girl Tabs
 Rating:
3.6/5 (5 votes)
Psalm 73 My Gods Enough lessons Tabs too difficult? Try these video lessons and learn fast
1
                Balow Girl
Psalm73 (my God´s enough)
Another Journal entry

for the intro
1st guitar
1------------------------------------------------------------------------|
2------------------------------------------------------------------------|
3-7-5-7----------5----7-5-7----------5-7-9-------------------------------|
4-------7-77-5-7---7--------7-77-5-7-------------------------------------|
5------------------------------------------------------------------------|
6------------------------------------------------------------------------|

2nd guitar

1--------------------------------------------------------------------------|
2--------------------------------------------------------------------------|
3-7-7-9-10----------------------------------------------------5------------|
4-7-7-9-10-8-8-8-5-5-5-7-7-7-7----PLAY X2---------------------5------------|
5-5-5-7-8--8-8-8-5-5-5-7-7-7-7---(at the second one end with)-3------------|
6----------6-6-6-3-3-3-5-5-5-5---------------------------------------------|


verse, it begins with a low distorsion with the same chords
then continues with distorsion the same chords at (0:46) the 1st guitar begins with 
(the second guitar continues the same)

1------------------------------------------------------------------------|
2------------------------------------------------------------------------|
3-5-777-9-777-5-7-5------------------------------------------------------|
4-------------------7-7--555-777-8---------------------------------------|
5------------------------------------------------------------------------|
6------------------------------------------------------------------------|

the second guitar prepares the chorus in (0:51)with

1-------------------------------------------------------------------|
2-------------------------------------------------------------------|
3-------------------------------------------------------------------|
4--5-----7----8-----------------------------------------------------|
5--5-----7----8-----------------------------------------------------|
6--3-----5----6-----------------------------------------------------|

Chorus: with the same chords of verse but higher

1--------------------------------------------------------------------------|
2--------------------------------------------------------------------------|
3-7-7-9-10--------------------------------------------5--------------------|
4-7-7-9-10-8-8-8-5-5-5-7-7-7-7------------------------5--------------------|
5-5-5-7-8--8-8-8-5-5-5-7-7-7-7---(at the second one )-3--------------------|
6----------6-6-6-3-3-3-5-5-5-5---------------------------------------------|

the song is the same to the end just in (2:32) use this chords with WAH pedal

1----------------------------------------------------------------------------|
-----------------------------------------------------------------------------|
2----------------------------------------------------------------------------|
3-7-7-7-x-x-x----------------------------------------------------------------|
4-7-7-7-x-x-x-X2-8-8-8-x-x-x-------------------------------------------------|
5-5-5-5-x-x-x----8-8-8-x-x-x-X2----------------------------------------------|
6----------------6-6-6-x-x-x-------------------------------------------------|
            
Submit corrections

comments powered by Disqus
↑ Back to top | Barlow Girl Tabs for Psalm 73 My Gods Enough. Lyrics for acoustic guitar and electric guitar. 1 Tablatures and chords are parodies/interpretations of the original songs. You may use it for private study, scholarship, research or language learning purposes only