» » »

Barlow Girl, Psalm 73 My Gods Enough Bass tabs (ver.1)

Artists:  A B C D E F G H I J K L M N O P Q R S T U V W X Y Z # 

Psalm 73 My Gods Enough Bass tabs (ver.1)

Barlow Girl Tabs
 Rating:
4/5 (4 votes)
Psalm 73 My Gods Enough lessons Tabs too difficult? Try these video lessons and learn fast
                Intro
E| --------------111-555---------|
A| -555-111----------------------|
D| ------------------------------|        2x
G| ------------------------------|

Verse 1
E| -------------------------1111-5555------------------1111----------|
A| -3333-5555-1111-----------------5555-1111----------3333-----------|
D| ------------------------------------------------------------------|
G| ------------------------------------------------------------------|

E| ------------------1111-5555-3333-5555------------------------|
A| 5555-1111-----------------------------------1111-3333--------|
D| -------------------------------------------------------------|
G| -------------------------------------------------------------|

Chorus
E| ----------------1111-5555------------------1111------------|
A| 5555-1111-----------------5555-1111----------3333----------|    2x
D| -----------------------------------------------------------|
G| -----------------------------------------------------------|

After Chorus
E| ---------11-55-----------11----------------|
A| 55-11----------55-11---------33------------|
D| -------------------------------------------|
G| -------------------------------------------|

Verse 2
E| --------------1111-55----|       |--333-555-----------------|
A| -5555-11-----------------|    3x |---------------111-333----|
D| -------------------------|       |--------------------------|
G| -------------------------|       |--------------------------|

E| -------------------1111-5555-----------------1111-------------------|
A| --5555-1111------------------5555-1111---------3333-----------------|
D| --------------------------------------------------------------------|
G| --------------------------------------------------------------------|

E| -----------------1111-5555-3333-5555------------------------|
A| 5555-1111----------------------------------1111-3333--------|
D| ------------------------------------------------------------|
G| ------------------------------------------------------------|

Chorus

Bridge
E| ----------11-55--------|
A| 55-11------------------|
D| -----------------------|
G| -----------------------|

Chorus
            
Submit corrections

comments powered by Disqus
↑ Back to top | Barlow Girl Bass for Psalm 73 My Gods Enough. Lyrics for acoustic guitar and electric guitar. Tablatures and chords are parodies/interpretations of the original songs. You may use it for private study, scholarship, research or language learning purposes only