>
 >
These Apples

These Apples Guitar Tabs

Barenaked Ladies - These Apples chords, tabs, tablatures, lyrics

Guitar lessons | Add/correct | Request | Top 50 tabs Artists:  A B C D E F G H I J K L M N O P Q R S T U V W X Y Z 0-9

These Apples Guitar Tabs – Barenaked Ladies

CD, Sheet music, Poster

Do you like These Apples? Share with your friends now
ChordsTabsUkulele
-------------------------------------------------------------------------------
-------------------------------------------------------------------------------

Tuning: Standard

Intro: 

e|---------3--0-----------3--0-----------3--0---3-0~---------------------------|
B|---------3--2-----------3--2-----------3--2---2-2~---------------------------|
G|---------0--0-----------0--0-----------0--0---0-0~---------------------------|
D|---------0--2-----------0--2-----------0--2---0-2~---------------------------|
A|---------2--0-----------2--0-----------2--0---2-0~---------------------------|
E|-0-2-3-3-3--0---0-2-3-3-3--0---0-2-3-3-3--0---3-0~---------------------------|

Verses: 

e|---3--0-------------------------0-----------0~---------------------------|
B|---3--2--Alternate-between------2h4---4~------4~-----Throw-this-in-------|
G|---0--0-------------------------0-------0~------0~-----------------------|
D|---0--2---these-chords----------2h4-4~----4~----------occasionally-------|
A|---2--0-------------------------0----------------------------------------|
E|---3--0-------------------------0----------------------------------------|

Chorus:

e|---0--0--3-------------3---3--0----------0--0--0-----------------------|
B|---3--2--3--Find-the---3---3--2----------3--2--1---Again-find----------|
G|---2--0--0-------------0---0--0--pause---2--0--0-----------------------|
D|---0--2--0---rhythm----0---0--2----------0--2--2----the-rhythm---------|
A|---2--0--2-------------2---2--0----------2--0--3-----------------------|
E|---0--0--3-------------3-2-0--0----------0--0--------------------------|

"I'm not trying to..." and "Falling in love...":

e|---0~--3~--0~--0-0--0~--3~---------------------------------------------------|
B|---3~--3~--2~--3-3--3~--3~---------------------------------------------------|
G|---2~--0~--0~--2-2--2~--0~---------------------------------------------------|
D|---0~--0~--2~--0-0--0~--0~---------------------------------------------------|
A|---0~--2~--0~--2-2--0~--2~---------------------------------------------------|
E|---2~--3~--0~--0-0--2~--3~---------------------------------------------------|

Instrumental Bridge Thing:

e|---0---0---0---0---0------------------------------------------|
B|---2---4---5---4---2---First-pick-quite-fast------------------|
G|---0---0---0---0---0------------------------------------------|
D|---0h2-0h4-0h5-0h4-0h2--Then-play-the-full-chords-------------|
A|---0---0---0---0---0------------------------------------------|
E|---0---0---0---0---0------------------------------------------|


Sequence:

Intro
Verse
Chorus
Intro
Verse
Chorus
Intro (half)
"I'm not trying to sing..."
Intro (half)
"Falling in love..."
Intro (half)
Instrumental Bridge Thing
Chorus
Intro
Instrumental Bridge Thing
End On:

e|-0-|
B|-2-|
B|-0-|
D|-2-|
A|-0-|
E|-0-|




| /  slide up
| \  slide down
| h  hammer-on
| p  pull-off
| ~  let ring
| +  harmonic
| x  Mute note
===============================================================================





Comments


Popular Barenaked Ladies tabs & chords
7 8 9 1 Chords
Every Subway Car 1 Chords
I Dont Like Chords
I Saw Three Ships Chords
Thanks That Was Fun 1 Chords
The Old Apartment 4 Chords
Told You So Chords
Hidden Sun Tabs
Its Only Me The Wizard Of Magicland Tabs
Sound Of Your Voice Tabs


Song lyrics



↑ Back to top | Tablatures and chords are parodies/interpretations of the original songs. You may use it for private study, scholarship, research or language learning purposes only
© 2014 AZChords.com Contact us | Privacy policy | DMCA | Add/correct tabs | Request tabs | Top 50 tabs