» » »

These Apples Tabs (ver.1)

Artists:  A B C D E F G H I J K L M N O P Q R S T U V W X Y Z # 

These Apples Tabs (ver.1)

Barenaked Ladies
Rating:
0/5 (0 votes)

Hard to play? Try these video lessons and learn fast.
                (Live)
Intro
0:11

let ring
|-10------9|-----|7-----5|-----------|----------------|----|
|----------|-----|-------|-------8--7|----5----5h7p5--|----|
|-9h11----9|-----|7-----6|-----------|----------------|----|
|----------|-----|-------|-------9--7|----5----7------|----|
|----------|-----|-------|-----------|----------------|----|
|----------|-----|-------|-----------|----------------|----|

|-10---9--7-|-5---------|--------7---|---||--------10--9-|
|-----------|-----------|------------|---||o-------------|
|-9h11-9--7-|-6---------|--------7---|---||--7-/9--11--9-|
|-----------|-----------|------------|---||--9-/11-------|
|-----------|-----------|------------|---||o-------------|
|-----------|-----------|------------|---||--------------|

1st__ 2nd__         v
|----||-----9h10p9//12---|
|---o||------------------|
|----||------------------|
|----||------------------|
|---o||------------------|
|----||------------------|

Verse
0:53   Jiggle whammy bar on both notes
       v             v
|-----------------------------|
|-----<12>----------<12>------|
|-----------------------------|
|-----------------------------|
|-----------------------------|
|-----------------------------|

||--------10--9--||
||o-------------o||
||--7-/9--11--9--|| x 7
||--9-/11--------||
||o-------------o||
||---------------||


Chorus
|------------------|------------------|------------------|---------|
|------------------|------------------|---------7--------|---------|
|----77x---77x---7x|----77x---77x---7x|----77x7---9-7h9p7|-----777-|
|-7h9---7h9---7h9--|-7h9---7h9---7h9--|-7h9--------------|9-7h9----|
|------------------|------------------|------------------|---------|
|------------------|------------------|------------------|---------|

|------------------|------------------|------------------|
|------------------|------------------|------------------|
|----------9---7---|---------9---7----|------------------|
|----------9-------|---------9--------|-4-4-4-4-5-5-5-5--|
|------------------|------------------|------------------|
|------------------|------------------|------------------|


1:20                                                      v
|--------10--9--|---------------|--------10--9--|--10p9//12-----|
|---------------|-----9h11p9----|---------------|---------------|
|--7-/9--11--9--|---------------|--7-/9--11--9--|---------------|
|--9-/11--------|---------------|--9-/11--------|---------------|
|---------------|---------------|---------------|---------------|
|---------------|---------------|---------------|---------------|

Verse 2
1:33             v(jiggle whammy bar)
|--------------------|
|---<12>-------------|
|-------<12>---------|
|-----------<12>-----|
|---------------<12>-|
|--------------------|

1:38
|-<3>----------------|-<7>----------------|
|---------------<7>--|--------------------|
|--------------------|--------------------|
|--------------------|--------------------|
|--------------------|--------------------|
|--------------------|--------------------|

||--------10--9--||
||o-------------o||
||--7-/9--11--9--|| x 7
||--9-/11--------||
||o-------------o||
||---------------||

Repeat Chorus

Bridge
2:07
|--------10--9--|-----10-9-7----|---------------|
|---------------|------------8--|-7-------------|
|--7-/9---------|--7-9----------|---------------|
|---------------|---------------|---------------|
|---------------|---------------|---------------|
|---------------|---------------|---------------|

                          | 2/4 |

|---------------|---------|-2-2-|
|-7-------------|------2--|-3-3-|
|---------------|----0----|-2-2-|
|---------------|--2------|-4-4-|
|---------------|4--------|-2-4-|
|---------------|---------|-----|

|---------|--------------|
|-------3-|--------------|
|-----2---|--------------|
|---0-----|-(0)----------|
|---------|--------------|
|-2-------|-(3)----------|                             | 2/4 |

|--------10--9--|-----10-9-7----|----------------|-----|-2-2-|
|---------------|------------8--|-7----7h8-7-----|-----|-3-3-|
|--7-/9---------|--7-9----------|-----------9-7--|-7/9-|-2-2-|
|---------------|---------------|----------------|-----|-4-4-|
|---------------|---------------|----------------|-----|-2-2-|
|---------------|---------------|----------------|-----|-----|

|---------|--------------|
|-------3-|--------------|
|-----2---|--------------|
|---0-----|-(0)----------|
|---------|--------------|
|-2-------|-(3)----------|

||--------10--9--||
||o-------------o||
||--7-/9--11--9--|| x 4
||--9-/11--------||
||o-------------o||
||---------------||

Buildup
2:49 (Distortion)
|----------|---|---|
|----------|---|---|
|-2~~~~~~~-|---|-2-|
|-2~~~~~~~-|---|-2-|
|-0~~~~~~~-|---|-0-|
|----------|---|---|

(with some variation)  
||----------|------------||
||o-5--5--5-|-/8-8--8-7-o||
||--6--6--6-|-/9-9--9-7--||
||----------|------------||  x 5
||o---------|-----------o||
||----------|------------||

|----------|-----5----5------|---|
|--5--5--5-|--5b7--5b7--5b6b5|-3-|
|--6--6--6-|-----------------|---|
|----------|-----------------|---|
|----------|-----------------|---|
|----------|-----------------|---|

Chorus 3(slightly different)
3:22
|-------------|---------|
|----7--------|---------|
|--7---9-7h9p7|-----777-|
|-------------|9-7h9----|
|-------------|---------|
|-------------|---------|

|------------------|------------------|------------------|-----------------|
|------------------|------------------|------------------|-----------------|
|----------9---7---|----------9--7----|------------------|-----------------|
|----------9---7---|----------9--7----|-4-4---4-5-5---5--|-4-5-4-5-4-5-4-5-|
|------------------|------------------|------------------|-----------------|
|------------------|------------------|------------------|-----------------|

||--------10--9--||
||o-------------o||
||--7-/9---------|| x 3
||---------------||
||o-------------o||
||---------------||      

Outro
                    up and down on whammy bar
                           v      v 
|--------10-----------|---------------------|---------------------|
|------------1010--10-|-10------------------|---------------------|
|--7-/9------9-9---9--|-9-------------------|---------------------|
|---------------------|---------------------|(scratch strings with|
|---------------------|---------------------|pick)----------------|
|---------------------|---------------------|---------------------|

|------------------|---------------------|-----10p9------------|
|------------------|-----------1010-10-10~~--------10----------|
|------------------|-----------9-9--9--9~~~----------9~~~~-----|
|------------------|---------------------|---------------------|
|------------------|---------------------|---------------------|
|------------------|---------------------|---------------------|

|------------------|------------------|-----------9-9----|----9--|
|------------------|------------------|-----------1010---|--10---|
|---7//9//7--------|-------------7///-|-----------9-9----|-9-----|
|------------------|------------------|------------------|-------|
|------------------|------------------|------------------|-------|
|------------------|------------------|------------------|-------|

END
            
Hard to play? Try these video lessons and learn fast. | Correct




comments powered by Disqus
↑ Back to top | Tablatures and chords are parodies/interpretations of the original songs. You may use it for private study, scholarship, research or language learning purposes only