>
 >
Just A Smile 1

Just A Smile 1 Guitar Tabs

Barbie Almalbis - Just A Smile 1 chords, tabs, tablatures, lyrics

Guitar lessons | Add/correct | Request | Top 50 tabs Artists:  A B C D E F G H I J K L M N O P Q R S T U V W X Y Z 0-9

Just A Smile 1 Guitar Tabs – Barbie Almalbis

CD, Sheet music, Poster

Do you like Just A Smile 1? Share with your friends now
Bass TabsChordsChords v2Chords v3Chords v4Chords v5TabsTabs v2Ukulele
-------------------------------------------------------------------------------
song_just a smile
artist_barbie almalbis
album_close-up theme (ewan ko kung may album na)
-------------------------------------------------------------------------------

     *maganda yung kanta. sobra. ginawan ko na ng tabs, kasi wala pa namang gumagawa.
para         makanta na ng lahat. remember, use close-up, then smile. wahahaha....

     *hi sa lahat ng mga PT batch 2002-2007 sa UST! hi sa mga kaberkz ko at mga musikero
dyan!
     *pakinggan nyo na lang yung kanta para sa timing. yung lyrics nasa baba. 

tuning_standard tuning
       capo sa 1st fret (mahilig naman talaga si barbie gumamit ng capo, e...)
       all chords relative to capo

intro__
e|-----------0----------------4-4---------------0---------------0-0----------|
B|-------4-4---4----------4-------4---------4-4---4---------4----------------|
G|-----4----------------4---4-------------4---------------4---4------4-------|
D|---------------------------------------------------------------------------| x2
A|--0----------------2-----------------0---------------2---------------------|
E|---------------------------------------------------------------------------|
      *paglaruan nyo lang yung mga chords na to. iniiba iba nya kasi yung 
         plucking pattern, e.. basta ipwesto nyo na yung daliri nyo dun sa mga
        4-4-4 na yun.. tapos yung 0-2 na lang yung babaguhin..

verse__
e|-----------0----------------4-4---------------0---------------0-0----------|
B|-------4-4---4----------4-------4---------4-4---4---------4----------------|
G|-----4----------------4---4-------------4---------------4---4------4-------|
D|---------------------------------------------------------------------------| x2
A|--0----------------2-----------------0---------------2---------------------|
E|---------------------------------------------------------------------------|
      *paglaruan uli...

chorus__
e|--0----0----0----0----------0----0----0----0-------------------------------|
B|--0----0----0----0----------0*---0*---0----0-------------------------------|
G|--1----2----2----2----------6----4----2----2-------------------------------|
D|--2----3----2----2----------6----4----2----2-------------------------------| x2
A|--2----3----0----0----------4----2----0----0-------------------------------|
E|--0----2----0----0----------0----0----0----0-------------------------------|
    e   f#m   a9   a9       c#m   b   a9    a9
*yung may (*), pwede nyong gawing (056640 tsaka 044420)

verse uli__

*isa pang gitara?
e|----4----------------------------------------------------------------------|
B|----4----------------------------------------------------------------------|
G|----4----------------------------------------------------------------------|
D|----4----------------------------------------------------------------------|
A|---------------------------------------------------------------------------|
E|---------------------------------------------------------------------------|
   *may parang harmonics na gumagawa nito sa background... ata..

chorus uli__

bridge__
e|--0----0----0----0---------------------------------------------------------|
B|--0----0----0----0---------------------------------------------------------|
G|--2----2----2----2--~------------------------------------------------------| x8
D|--3----3----2----2---------------------------------------------------------|
A|--3----3----0----0---------------------------------------------------------|
E|--2----2----0----0---------------------------------------------------------|
   f#m  f#m   a9   a9

isa pang gitara
e|----17-----------------------------17--------------------------------------|
B|---------------------------------------------------------------------------|
G|---------------------------------------------------------------------------|
D|---------------------------------------------------------------------------|
A|---------------------------------------------------------------------------|
E|---------------------------------------------------------------------------|
        *pumapasok lang to sa una at pangatlong lines ng bridge.

chorus 2__
e|----1----3----1----1----5----3----1----1-----------------------------------|
B|----1----3----1----1----5----3----1----1-----------------------------------|
G|----1----3----3----3----7----5----3----3-----------------------------------|
D|----3----5----3----3----7----5----3----3-----------------------------------| x4
A|----3----5----1----1----5----3----1----1-----------------------------------|
E|----1----3-----------------------------------------------------------------|
         *1 fret higher na chords ng chorus 1.

gitara 2
e|----5----------------------------------------------------------------------|
B|------6-6------------------------------------------------------------------|
G|---------------------------------------------------------------------------|
D|---------------------------------------------------------------------------|
A|---------------------------------------------------------------------------|
E|---------------------------------------------------------------------------|
       *may lead na banda dito sa mga strings na 'to.. kayo na lang makinig mabuti..

outro__
e|----1----3----1----3----1----3---------------------------------------------|
B|----1----3----1----3----1----3---------------------------------------------|
G|----3----5----3----5----3----5---------------------------------------------|
D|----3----5----3----5----3----5---------------------------------------------|
A|----1----3----1----3----1----3---------------------------------------------|
E|---------------------------------------------------------------------------|

gitara 2
e|---------------------------------------------------------------------------|
B|----6p5-6------------------------------------------------------------------|
G|-----------5---------------------------------------------------------------| x3
D|---------------------------------------------------------------------------|
A|---------------------------------------------------------------------------|
E|---------------------------------------------------------------------------|
   *medyo lead

end on
e|----1----------------------------------------------------------------------|
B|----1----------------------------------------------------------------------|
G|----3-~--------------------------------------------------------------------|
D|----3----------------------------------------------------------------------|
A|----1----------------------------------------------------------------------|
E|---------------------------------------------------------------------------|





Comments


Popular Barbie Almalbis tabs & chords
Dahilan 2 Bass Tabs
Just A Smile Bass Tabs
Dahilan Chords
Just A Smile 2 Chords
Just A Smile 4 Chords
Sorry Song Chords
Overdrive Tabs
High Ukulele
Just A Smile Ukulele
Pag-alis Ukulele


Song lyrics



↑ Back to top | Tablatures and chords are parodies/interpretations of the original songs. You may use it for private study, scholarship, research or language learning purposes only
© 2014 AZChords.com Contact us | Privacy policy | DMCA | Add/correct tabs | Request tabs | Top 50 tabs