>
 >
Just A Smile

Just A Smile Bass Tabs

Barbie Almalbis - Just A Smile chords, tabs, tablatures, lyrics

Guitar lessons | Add/correct | Request | Top 50 tabs Artists:  A B C D E F G H I J K L M N O P Q R S T U V W X Y Z 0-9

Just A Smile Bass Tabs – Barbie Almalbis

CD, Sheet music, Poster

Do you like Just A Smile? Share with your friends now
Bass TabsChordsChords v2Chords v3Chords v4Chords v5TabsTabs v2Ukulele


This is one my many favorite songs of barbie - makes you fall in love, really.. Reminds
me of that TV commercial. Dedicated to my bandmates Dianne, Bleau, and Otik. More Power
bai!

enjoy!!! This is 101 percent correct..




INTRO:

Bb-C
|---3----5----3----5-------------|
|--------------------------------|
|--------------------------------|
|--------------------------------| (2x)


Verse:

Bb-C
|---3----5----3----5-------------|
|--------------------------------|
|--------------------------------|
|--------------------------------|
I wanna tell you everything...

|------------------------------------------------|
|------------------------------------------------|
|-------------------8\1----3----1----3-----------|
|------------------------------------------------|

...hear you breathe..


CHORUS:

F-G-Bb-D-C-Bb
|------------------------------------------------------|
|------------------------------------------------------|
|------------------1--1-1---5--5-5--3--3-3--1--1-1-----|
|--1--1-1--3--3-3--------------------------------------|
You make me feel like I, can get lost inside your eyes..

|------------------------------------------------------|
|------------------------------------------------------|
|------------------1--1-1---5--5-5--3--3-3--1--1-1-----|
|--1--1-1--3--3-3--------------------------------------|
I feel closer to the sky when you say good day with just a smile...


(Do Intro once)

Verse 2:
Bb-C (same as first verse)
|--------------------------------|
|--------------------------------|
|---1----3----1----3-------------|
|--------------------------------|
I wanna meet you someday...

|-------------------------------3----5----3----5-----|
|---------------------------3h5----------------------|
|---1----3----1----3----3h5--------------------------|
|----------------------------------------------------|
...have you right beside...

|---3----5----3----5--------------------------|
|---------------------------------------------|
|-----------------------8\1----3----1----3----|
|---------------------------------------------|
...with your boyish charm...

(Do Chorus)

BRIDGE:

G-Bb
|----------------------------------------------------------|
|----------------------------------------------------------|
|----------------1111111111111---------------1111111111111-|
|--3333333333333---------------3333333333333---------------|

|--------------------------------------------------------|
|--------------------------------------------------------|
|----------------------3-3-1-1---------------------------|
|------------------------------3-3-1-1-333333333333------|

...the world in vain...

|----------------------------------------------------------|
|----------------------------------------------------------|
|----------------1111111111111---------------1111111111111-|
|--3333333333333---------------3333333333333---------------|


CHORUS: 1 step higher.

F#-G#-B-C#-Eb(D#)-C#-B
played similarly with the 1st and 2nd chorus..

Outro: B-C#
Ends in B


E N D





Comments


Popular Barbie Almalbis tabs & chords
Dahilan Chords
High 1 Chords
Just A Smile 4 Chords
Torpe Chords
When I Met You 1 Chords
When I Met You 2 Chords
Dahilan Tabs
High Tabs
Sorry Song Ukulele
When I Met You Ukulele


Song lyrics



↑ Back to top | Tablatures and chords are parodies/interpretations of the original songs. You may use it for private study, scholarship, research or language learning purposes only
© 2014 AZChords.com Contact us | Privacy policy | DMCA | Add/correct tabs | Request tabs | Top 50 tabs