» » »

Band Of Horses, Great Salt Lake Tabs (ver.1)

Artists:  A B C D E F G H I J K L M N O P Q R S T U V W X Y Z # 

Great Salt Lake Tabs (ver.1)

Band Of Horses Tabs
Rating:
0/5 (0 votes)
Great Salt Lake lessons Tabs too difficult? Try these video lessons and learn fast
                (Intro)
BAND OF HORSES - THE GREAT SALT LAKE


I don't think this is perfect but it sounds very close:

First you'll need to use a capo on the 1st fret.  The tab below is relative to the first fret:

e|-------------------------------|
B|--------2--2-2-2--2-2-2--2-2-2-|
G|--9-\-5------------------------|  x2
D|--9-\-5------------------------|
A|--7-\-2-2--2-2-2--2-2-2--2-2-2-|
E|--8-\-3-3--3-3-3--3-3-3--3-3-3-|

e|-------------------------------|
B|--2-2-2-2--2-2-2--2-2-2--2-2-2-|
G|-------------------------------|  x2
D|-------------------------------|
A|--3-3-3-3--3-3-3--3-3-3--3-3-3-|
E|-------------------------------|

This riff repeats a number of times throughout the song.  
            

comments powered by Disqus
↑ Back to top | Band Of Horses Tabs for Great Salt Lake. Lyrics for acoustic guitar and electric guitar. Tablatures and chords are parodies/interpretations of the original songs. You may use it for private study, scholarship, research or language learning purposes only