» » »

Great Salt Lake Chords (ver.1)

Artists:  A B C D E F G H I J K L M N O P Q R S T U V W X Y Z # 

Great Salt Lake Chords (ver.1)

Band Of Horses
Rating:
4/5 (3 votes)

Hard to play? Try these video lessons and learn fast.
                Alright Guys, this is my first tab ever but not new to tablature.

This Sounds pretty damn right to me

Capo 1: Standard Tuning (Notes and Chords Relative to Capo)

Intro / Verse: (I'm pretty sure it's a second guitar doing the like but it will sound 
if you do it all one guitar if you don't have another one and someone to play)
|---------------------------|
|---------3-3-3-3-3-3-3-3---|
|---9\----4-4-4-4-4-4-4-4---|
|-------x-5-5-5-5-5-5-5-5---|    x2
|---7\--x-5-5-5-5-5-5-5-5---|
|---------------------------|

Note: Just kind sneak that (4) in there as the feeling demands
|---------------------------|
|--3-3-3-3-3-3-3-3----------|
|--x-4-x-4-x-4-x-4----------|
|--5-5-5-5-5-5-5-5----------|  x2
|--3-3-3-3-3-3-3-3----------|
|---------------------------|

Into Chorus

|--------|                    |------------------------------------------------|
|--------|                    |-------3-----------3----------3---------3-------|
|--------|                    |---5-----5-----5-- --5-----5----5----5----5-----|
|--------|                    |-----0-----0-----0----------0----0----0---------|    x2
|-3--2---|                    |-0----------- 0--------2-3---------3-------3-2--|
|--------|                    |------------------------------------------------|


Interlude (i guess) 3 Guitar parts here

Guitar 1
|---------------------------|
|---------3-3-3-3-3-3-3-3---|
|---9\----4-4-4-4-4-4-4-4---|
|-------x-5-5-5-5-5-5-5-5---|  x2
|---7\--x-5-5-5-5-5-5-5-5---|
|---------------------------|


|---------------------------|
|--3-3-3-3-3-3-3-3----------|
|--x-4-x-4-x-4-x-4----------|
|--5-5-5-5-5-5-5-5----------|  x2
|--3-3-3-3-3-3-3-3----------|
|---------------------------|

Guitar 2
|-3-3-3-3--2-2-2-2----------|
|-3-3-3-3--3-3-3-3----------|
|-0-0-0-0--0-0-0-0----------|
|-0-0-0-0--0-0-0-0----------|
|-x-x-x-x--x-x-x-x----------| x2
|-3-3-3-3--3-3-3-3----------|

|-0-0-0-0-0-0-0-0-3-3-3-3-3-3-3-3----------|
|-0-0-0-0-0-0-0-0-3-3-3-3-3-3-3-3----------|
|-0-0-0-0-0-0-0-0-0-0-0-0-0-0-0-0----------|
|-2-2-2-2-2-2-2-2-0-0-0-0-0-0-0-0----------|
|-2-2-2-2-2-2-2-2-x-x-x-x-x-x-x-x----------|
|-0-0-0-0-0-0-0-0-3-3-3-3-3-3-3-3----------|


Guitar 3

|---------------------------------------------------------------------|
|--8---8---8---8---7---7---7---7---8---8---8---8---7---7--8---7-------|
|----7---7---7---7---7---7---7---7--7---7---7---7---7---7---7---7-----|
|---------------------------------------------------------------------|
|---------------------------------------------------------------------|
|---------------------------------------------------------------------|

|---------------------------------------------------------------|
|--5---5---5---5---5---5---5---5---8---8---8---8--8---8---8---8-|
|----7---7---7---7---7---7---7---7---7---7---7---7---7---7---7--|
|---------------------------------------------------------------|
|---------------------------------------------------------------|
|---------------------------------------------------------------|


Well, the rest of the song is just that over again. Hopefully you can put this together. 

Thank You

(I'm seeing Band Of Horses in Norman tomorrow Feb 1. =D)
            
Hard to play? Try these video lessons and learn fast. | Correct




comments powered by Disqus
↑ Back to top | Tablatures and chords are parodies/interpretations of the original songs. You may use it for private study, scholarship, research or language learning purposes only