» » »

No One Gonna Love You Tabs (ver.3)

Artists:  A B C D E F G H I J K L M N O P Q R S T U V W X Y Z # 

No One Gonna Love You Tabs (ver.3)

Band Of Horses
Rating:
0/5 (0 votes)

Hard to play? Try these video lessons and learn fast.
                (1)
sombrarrosrock version

Capo 1

Intro:Play verse twice?

Verse:
   C       ?    ?         C       ?       ?
E---------------------------------------------------------|
A--3-------2---2----------3-------2---2-------------------|
D------2--------2---2---------2-----------2---2---2---2---|  x4
G----0---0---0----0---------0---0---0---0---0---0---0---0-|
B----------3---3------------------3---3-------------------|
e--0---0--------3---3/5p0-0---0-----------3---3---3---3---|

Chorus:
   F               Dm      Am      ?
E----------------------------------3---------3-|
A--------------------------------------0h2-----|
D--3-------3-------0-------2---------0---------| x 2
G----2---2---2---2---2---2---2---2-------------|
B------1-------1-------3-------1-----------1---|
e------1-------1-------1-------0---------------|

Verse

Chorus

Bridge:
  Em      Em      F       G
E-0-------0---------------3-------|
A---2-------2---------------2-----|
D-----2-------2---3---------------|
G-------0-------0---2---0-------0-|
B---------------------1-------3---|
e-----0-------0-------1-------3---|

  C         Em      F       G
E---------0---------------3-------|
A-3---------2---------------2-----|
D---2---------2---3---------------| x 3
G-------0-------0---2---0-------0-|
B-----1---------------1-------3---|
e-----0-------0-------1-------3---|

Verse

Chorus

Bridge
            
Hard to play? Try these video lessons and learn fast. | Correct




comments powered by Disqus
↑ Back to top | Tablatures and chords are parodies/interpretations of the original songs. You may use it for private study, scholarship, research or language learning purposes only