» » »

Band Of Horses, No One Gonna Love You Tabs (ver.1)

Artists:  A B C D E F G H I J K L M N O P Q R S T U V W X Y Z # 

No One Gonna Love You Tabs (ver.1)

Band Of Horses Tabs
Rating:
0/5 (0 votes)
No One Gonna Love You lessons Tabs too difficult? Try these video lessons and learn fast
                Intro/Verse
e|---------------------------------------------------------------------------|
B|--6---4----9---(11--9)-----------------------------------------------------|
G|---------------------------------------------------------------------------|
D|--6---5----10--------------------------------------------------------------|
A|--4---3----8---------------------------------------------------------------|
E|---------------------------------------------------------------------------|

e|--8---8---8-h9---9--11---------8---8---8-h9--------------------------------|
B|----9---9------9-----------------9---9------9--11--9-----------------------|
G|---------------------------------------------------------------------------|
D|---------------------------------------------------------------------------|
A|---------------------------------------------------------------------------|
E|---------------------------------------------------------------------------|

those are the chords and you can mess with the picking pattern

Pre-chorus...from the high Fm
e|---------------------------------------------------------------------------|
B|--9------------------------------------------------------------------------|
G|---------------------------------------------------------------------------|
D|--10----11-----------------------------------------------------------------|
A|--8-----9------------------------------------------------------------------|
E|---------------------------------------------------------------------------|

Chorus (if you want to play open chords, you can put a capo on 1 and play Dm, C, G)...otherwise
e|---------------------------------------------------------------------------|
B|---7----6-----4------------------------------------------------------------|
G|---8----6-----5------------------------------------------------------------|
D|---8----6-----6------------------------------------------------------------|
A|---6----4------------------------------------------------------------------|
E|--------------4------------------------------------------------------------|

Post-Chorus (Bridge...)
e|------------------------4---4---2-----------------------------------------|
B|---9----11---13---------6---4---2-----------------------------------------|
G|------------------------6---5---3-----------------------------------------|
D|---10---11---13---------6---6---4-----------------------------------------|
A|---8----9----11---------4---6---4-----------------------------------------|
E|----------------------------4---2-----------------------------------------|

There's a whole lot of lead stuff going on in here that I don't feel like tabbing but 
are the basic chords..have fun playing it, it's one of their most beautiful


-William
            
Submit corrections

comments powered by Disqus
↑ Back to top | Band Of Horses Tabs for No One Gonna Love You. Lyrics for acoustic guitar and electric guitar. Tablatures and chords are parodies/interpretations of the original songs. You may use it for private study, scholarship, research or language learning purposes only