» » »

Band Of Horses, For Annabelle Tabs (ver.3)

Artists:  A B C D E F G H I J K L M N O P Q R S T U V W X Y Z # 

For Annabelle Tabs (ver.3)

Band Of Horses Tabs
 Rating:
4/5 (4 votes)
For Annabelle lessons Tabs too difficult? Try these video lessons and learn fast
                (Intro)
For Annabelle, Band of Horses (INTRO ONLY)

Uses open D tuning (DADF#AD): Be sure to play the open string notes
played on the 4th and 6th strings with your thumb; the rest is played
with fingers. Very tricky to keep the 3/4 rhythm going. If you need a
intro Band of Horses" guitar lesson on the BrightonGuitarLesson channel).

Intro:

d-||--7/9/4-------|-------------|-------------|-4-------------|
A-||--0-----------|-3-5/7-----0-|-------------|---------------|
F#||--0---------5-|-------------|-0--------0h3|---------------|
D-||-(7/9/4)--0---|-----0---0---|-----0---0---|-----0---0-----|
A-||--------------|-------------|-------------|---------------|
d-||--0-----------|-0-----------|-0-----------|-0-------------|
      +   +   +     +   +   +     +   +   +     +   +   +

d-||--4/7/4-------|-------------|--------------|--------------|
A-||--0-----------|-3-5-3-2---0-|-0-------0h2p0|--------------|
F#||--0--------/5-|-------------|--------------|-0--------0h1-|
D-||-(4/7/4)--0---|-----0---0---|-----0---0----|-----0---0----|
A-||--------------|-------------|--------------|--------------|
d-||--0-----------|-0-----------|-0------------|-0------------|
      +   +   +     +   +   +     +   +   +      +   +   +

d-||--------------|-------------|-0---2---4---|-5---7---11--|-12-|
A-||--3-----------|-3-----------|-------------|-------------|----|
F#||-----------0h1|-------------|-0---1---3---|-5---7---10--|-12-|
D-||------2---2---|-----2---2---|-------------|-0-----------|----|
A-||--0-----------|-0-----------|-------------|-------------|----|
d-||--------------|-------------|-0-----------|-------------|-0--|
      +   +   +     +   +   +     +   +   +     +   +   +     +
            
Submit corrections

comments powered by Disqus
↑ Back to top | Band Of Horses Tabs for For Annabelle. Lyrics for acoustic guitar and electric guitar. Tablatures and chords are parodies/interpretations of the original songs. You may use it for private study, scholarship, research or language learning purposes only