» » »

For Annabelle Tabs (ver.2)

Artists:  A B C D E F G H I J K L M N O P Q R S T U V W X Y Z # 

For Annabelle Tabs (ver.2)

Band Of Horses
Rating:
0/5 (0 votes)

Hard to play? Try these video lessons and learn fast.
                (Intro)
intro, 98% sure, timing isnt clear though.

|--5s7s2-------------------------2----2~s5s2---|
|-----------------------------0h1-----3--------|
|---------4s5-5-7s9~---0--------------2--------|
|-------0~-----------0~--4-0-0----0-0-0-----0--|
|----------------------------------------------|
|-0~----------0~---------0-------0----0--------|
               
                   [2~h4p2]
|-----------------------------------|
|---------------------h-------------|
|--2s55-7-5-422-------24p2----------|
|-0---0---0---0---0---0---4---0---0-|
|-----------------------------------|
|-----0-------0-----------0---------|

|------------------------------------5-8s10------|
|----------------------------3-5-7-8-------------|
|----5-------------5-----------------6-8s11------|
|4h5-2---2---2-4h5-2-2---2p0-4-5-7-9-------------|
|----3-------------3-----------------------------|
|------------------------------------------------|
            
Hard to play? Try these video lessons and learn fast. | Correct




comments powered by Disqus
↑ Back to top | Tablatures and chords are parodies/interpretations of the original songs. You may use it for private study, scholarship, research or language learning purposes only