» » »

Ends Not Near Tabs (ver.3)

Artists:  A B C D E F G H I J K L M N O P Q R S T U V W X Y Z # 

Ends Not Near Tabs (ver.3)

Band Of Horses
Rating:
4/5 (2 votes)

Hard to play? Try these video lessons and learn fast.
                
cover from plan b

maybe not 100% accurate... but might give you an idéa.
timing not included

into/verse
e||-------------------------------------------|
B||-------------------------------------------|
G||-------------------------------------------|
D||--9----9------6---6--/-2---2----------7----|
A||----11---11-----9--------4---4-----4----4--|
E||---------------------------------5---------|


fill
e||------------------|
B||------------------|
G||--9-8h9p8---------|
D||-----------11--7--|
A||------------------|
E||------------------|

chorus
E5, A, B x3
C#, B, A x2

lyrics

verse:

The end's not near
It's here
Alleluia
Spread the cheer
And watch the millenarians
Throw a party for a thousand years

You won't see the pious praying
They'll be too busy flaying
All the martyrs with better ways
To stop the world decaying

chorus:
If you call me I won't be home
I'm hiding from the kingdom come
They can't see everything on earth
With the satellites and the roving drones

This is why hell is underground
Like a reclaimed bad part of town
We don't want to lose our souls
We're the saints who don't want to be found
            
Hard to play? Try these video lessons and learn fast. | Correct




comments powered by Disqus
↑ Back to top | Tablatures and chords are parodies/interpretations of the original songs. You may use it for private study, scholarship, research or language learning purposes only