» » »

Band Of Horses, Ends Not Near Tabs (ver.1)

Artists:  A B C D E F G H I J K L M N O P Q R S T U V W X Y Z # 

Ends Not Near Tabs (ver.1)

Band Of Horses Tabs
Rating:
2/5 (1 vote)
Ends Not Near lessons Tabs too difficult? Try these video lessons and learn fast
                Band of horses
The End's not near



into/verse


e||--7-----7----------------------------------------------------|
B||-----9----9---9------9---9-----9-----------------------------|
G||-----------------11---------9-----9--------6---9------6------|
D||---------------------------------------7---------------------|
A||-------------------------------------------------------------|
E||-------------------------------------------------------------|




Chorus


e||-7--------2------------------------------------|
B||-9----2---4------------------------------------|
G||-9----2---4------------------------------------|
D||-9----2---4------------------------------------|
A||-7--------2------------------------------------|
E||-x--------x------------------------------------|  x 3



e||-5------2-----------------------------------|
B||-5------4------2----------------------------|
G||-6------4------2----------------------------|
D||-7------4------2----------------------------|
A||-7------2-----------------------------------|
E||-5------x-----------------------------------|



Bridge

e||------------------|
B||------------------|
G||--9-8h9p8---------|
D||-----------11--7--|
A||------------------|
E||------------------|
            

comments powered by Disqus
↑ Back to top | Band Of Horses Tabs for Ends Not Near. Lyrics for acoustic guitar and electric guitar. Tablatures and chords are parodies/interpretations of the original songs. You may use it for private study, scholarship, research or language learning purposes only