» » »

Bamboo, Pride And Flame Tabs (ver.1)

Artists:  A B C D E F G H I J K L M N O P Q R S T U V W X Y Z # 

Pride And Flame Tabs (ver.1)

Bamboo Tabs
 Rating:
4/5 (4 votes)
Pride And Flame lessons Tabs too difficult? Try these video lessons and learn fast
1
                Tuning: standard tuning
just listen to the song for the timing and strumming patterns. to lazy to put it for you
intro and verse
e|---3-----0-----0-----3--------------------------------|
B|---3-----0-----1-----3--------------------------------|
G|---0-----0-----0-----0--------------------------------|
D|---0-----2-----2-----0--------------------------------|
A|---2-----2-----3-----2--------------------------------|
E----3-----0-----0-----3--------------------------------|
Prechorus and chorus(little distortion)
e|---3-----2-----3-----0-----0-----0---0---0---0---0------------|
B|---3-----3-----3-----1-----0-----0---0---0---0---0------------|
G|---0-----4-----0-----0-----0-----5---4---2---4---2------------|
D|---2-----4-----2-----2-----2-----5---4---2---4---2------------|
A|---2-----2-----3-----3-----2-----3---2---0---2---0------------|
E|---0-----2-----0-----0-----0-----0---0---0---0---0------------|
                                  ....where will i...
e|----2----0-----0----0----0-----------------------|\
B|----2----0-----1----3----1-----------------------| \
G|----0----0-----0----0----0-----------------------|  2x
D|----0----2-----2----2----2-----------------------| /
A|----2----2-----3----3----3-----------------------|/
E|----3----0-----0----0----0-----------------------|
    ..find your light....
e|---3-(0)--0------3----3----3----3----3----3---3-----------------|
B|---3-(0)--1------3----3----3----3----3----3---3-----------------|
G|---0-(0)--0------0----0----0----0----0----0---0-----------------|
D|---0-(0)--2------0----2----2----2----0----3---2-----------------|
A|---2-(0)--3------2----3----2----3----2----2---3-----------------|
E|---3-(0)--0------3----0----0----0----3----0---0-----------------|

suggestions and corrections are open. tnx! Animo LaSalle!
            
Submit corrections

comments powered by Disqus
↑ Back to top | Bamboo Tabs for Pride And Flame. Lyrics for acoustic guitar and electric guitar. 1 Tablatures and chords are parodies/interpretations of the original songs. You may use it for private study, scholarship, research or language learning purposes only