>
 >
Peace Man 2

Peace Man 2 Guitar Tabs

Bamboo - Peace Man 2 chords, tabs, tablatures, lyrics

Guitar lessons | Add/correct | Request | Top 50 tabs Artists:  A B C D E F G H I J K L M N O P Q R S T U V W X Y Z 0-9

Peace Man 2 Guitar Tabs – Bamboo

CD, Sheet music, Poster

Do you like Peace Man 2? Share with your friends now
ChordsTabsTabs v2Tabs v3Ukulele
Transcribe by: Erwin Serrano Quezon City/Pangasinan 


TO ALL BAMBOO FANS TRY THIS!! HOPE U LIKE IT!!!:)  |m/


h=hammer
/=slide
^=bend

USED CHORDS:
    
     C       Dm         G
E|---0--------1---------3---------|
B|---1--------3---------3---------|
G|---0--------2---------0---------|
D|---2--------0---------0---------|
A|---3--------X---------2---------|
E|---0--------X---------3---------|
INtro:
        C                  Dm                 C         Dm      C
E|---------------------------------------------------------------------|
B|-----------------------------------------6/8--/10--8-----------------|
G|-----4h5--7--5-4-----------7/9--10-9-7-5--------------5/7------------|
D|-----------------5--/3---------------------------------------5H7--5--|
A|---------------------------------------------------------------------|
E|---------------------------------------------------------------------|
       Dm
E|---------------------------------------------------------------------|
B|---------------------------------------------------------------------|
G|---------------------------------------------------------------------|
D|---------------------------------------------------------------------|
A|----3h5--5-----------------------------------------------------------|
E|---------------------------------------------------------------------|

Verse 1
 C                              Dm
I have words to say to you my friend
C                                       Dm  
Is it hard to know what's right from wrong
C                         Dm
Have you ever felt your life so self assured
     C                                      Dm
You don't know the things that you've done wrong
               Dm
And then we'll say


REFRAIN
   Dm                    G           Dm                         G
E|----------------------------9/10-----------------------------------9/10-|
B|-------8/10-----------8--10------------8/10-------------------8--10-----|
G|--7--9----------------------------7--9----------------------------------|
D|------------------------------------------------------------------------|
A|------------------------------------------------------------------------|
E|------------------------------------------------------------------------|
  We'll rip out our covers          Shake the walls until they break


   Dm                    G                Dm                   G
E|--------------------------------9/10-------------------------------9/10-|
B|-------8/10---------------8--10------------8/10--------------8--10------|
G|--7--9--------------------------------7--9------------------------------|
D|------------------------------------------------------------------------|
A|------------------------------------------------------------------------|
E|------------------------------------------------------------------------| 
  I'll hold out my hand to you            Supreme love and respect

  Peace man


2ND Intro:
       C                     Dm
E|--------------------------------------------------------------------|
B|--------------------------------------------------------------------|
G|-----4h5--7-5-4-------/5--------------------------------------------|
D|----------------5--/3-----------------------------------------------|
A|--------------------------------------------------------------------|
E|--------------------------------------------------------------------|
 
        C                  Dm                 C         Dm      C
E|---------------------------------------------------------------------|
B|----------------------------------------6/8--/10--8------------------|
G|-----4h5--7--5-4-----------7/9--10-9-7-5--------------5/7------------|
D|-----------------5--/3---------------------------------------5H7--5--|
A|---------------------------------------------------------------------|
E|---------------------------------------------------------------------|


Verse 2


C                        Dm
At first it seems so daunting
  C                                 Dm
E|------------------------------------12-10-8-5-3----------------------|
B|------------------------------------12-10-8-6-5----------------------|
G|---------------------------------------------------------------------|
D|---------------------------------------------------------------------|
A|---------------------------------------------------------------------|
E|----------------------------------------------------------------------           
How to start or how to grow
C                          Dm
But make believe becomes a living
C                          Dm
Cuz in life, in life you will know

Peace man 

REPEAT REFRAIN:

Adlib:

E|----------------------------------------------------------------------|
B|---------------5h6-5--------------------------------------------------|
G|---------------------5h7-5-------------------9-10^9--7/5--9-10^9-7^5--|
D|--5h7-5h7-/10---------------5/7-5--------7/5--------------------------|
A|-------------------------------------7h8------------------------------|
E|----------------------------------------------------------------------|
  
E|----------------------------------------------------------------------|
B|--8/10--8------------10--11^12-11^12--15/12---------------------10-12-|
G|------------9h10--12------------------------10^9-----------10^12------|
D|-------------------------------------------------12^10-9^10-----------|
A|----------------------------------------------------------------------|
E|----------------------------------------------------------------------|

E|-13--10--13-13-12-----------------------------------------------------|
B|-----------------13--10--10-----------/13-----------------------------|
G|-----------------------------12--10-9---------------------------------|
D|----------------------------------------------------------------------|
A|----------------------------------------------------------------------|
E|----------------------------------------------------------------------|



REPEAT REFRAIN:
  

   C      Dm
E|---------------------------------------------------------------------|
B|-/12-----------------------------------------------------------------|
G|--------12--9--------------------------------------------------------|
D|--------------10-----------------------------------------------------|
A|---------------------------------------------------------------------|
E|---------------------------------------------------------------------|
  Peace man






friendster. Txt me(09223006427)
vote plz!!! tnxx





Comments


Popular Bamboo tabs & chords
As The Music Plays The Band Bass Tabs
Noypi 2 Bass Tabs
F.U 1 Chords
Noypi Chords
Noypi 1 Chords
Noypi 1 Tabs
Probinsyana Tabs
Muli Ukulele
Peace Man Ukulele
So Far Away Ukulele


Song lyrics



↑ Back to top | Tablatures and chords are parodies/interpretations of the original songs. You may use it for private study, scholarship, research or language learning purposes only
© 2014 AZChords.com Contact us | Privacy policy | DMCA | Add/correct tabs | Request tabs | Top 50 tabs