» » »

Bamboo, Peace Man Chords (ver.1)

Artists:  A B C D E F G H I J K L M N O P Q R S T U V W X Y Z # 

Peace Man Chords (ver.1)

Bamboo Tabs
 Rating:
4/5 (4 votes)
Peace Man lessons Tabs too difficult? Try these video lessons and learn fast
1
                

INTRO:
E|--------------------*---------------------------------------|
B|--------------------*---------------------------------------|
G|--4-5-7-4--------5--*--4-5-7-4-----------7-9-9h10-9-7p5-----|
D|----------5--2-3----*----------5-2-2h3----------------------|
A|--------------------*---------------------------------------|
E|--------------------*---------------------------------------|


E|--------------------------------------------|
B|-----6s8----8s10---8------------------------|
G|----------------------7-5-------------------|
D|---------------------------5s7-5------------|  
A|---------------------------------5--3-------|
E|--------------------------------------------|

Chords used:

CM7: X35453
Dm7: X57565
G  : 355433

Verse 1:

CM7                    Dm7                         
I have words to say to you my friend 

      CM7                             Dm7
Is it hard to know what's right from wrong 

CM7                      Dm7
Have you ever felt your life so self assured 

           CM7                              Dm7
You don't know the things that you've done wrong..  And then we'll say 

Refrain:

Dm7                 G
We'll rip out our covers 

Dm7                         G
Shake the walls until they break 

Dm7               G
I'll hold out my hand to you 

Dm7                G
Supreme love and respect  Peace man 


Instrumental:

E|--------------------*---------------------------------------|
B|--------------------*---------------------------------------|
G|--4-5-7-4--------5--*--4-5-7-4-----------7-9-9h10-9-7p5-----|
D|----------5--2-3----*----------5-2-2h3----------------------|
A|--------------------*---------------------------------------|
E|--------------------*---------------------------------------|


E|--------------------------------------------|
B|-----6s8----8s10---8------------------------|
G|----------------------7-5-------------------|
D|---------------------------3s5-3------------|  
A|---------------------------------5--3-------|
E|--------------------------------------------|


    CM7                Dm7   
At first it seems so daunting 

CM7              Dm7 
How to start or how to grow 

CM7                         Dm7
But make believe becomes a living 

CM7                           Dm7
Coz in life, in life you will know, and then we'll say

Refrain:

Dm7                 G
We'll rip out our covers 

Dm7                         G
Shake the walls until they break 

Dm7               G
I'll hold out my hand to you 

Dm7                G
Supreme love and respect  Peace man 


solo:
----------------------------|
----------5h6-5-------------|
---5-5h7---------7-5--------|
---------------------6/7-5--|
----------------------------|
----------------------------|

--------------------------------------------------8-8po7-8po7--------|
---------5-6po5-----5-6po5------8/10-8------8h10----------------8po0-|
----5h7---------7-5--------7-5---------8h10--------------------------|
5h7------------------------------------------------------------------|

-----------------------14-14-12/13------------------9----|
-----------------12h13-------------14--7/8-6--5-7-8------|
------------12h13----------------------------------------|
-------12h13---------------------------------------------|
--12h13--------------------------------------------------|
---------------------------------------------------------|

Peace man
            
Submit corrections

comments powered by Disqus
↑ Back to top | Bamboo Chords for Peace Man. Lyrics for acoustic guitar and electric guitar. 1 Tablatures and chords are parodies/interpretations of the original songs. You may use it for private study, scholarship, research or language learning purposes only