>
 >
Masaya 1

Masaya 1 Guitar Tabs

Bamboo - Masaya 1 chords, tabs, tablatures, lyrics

Guitar lessons | Add/correct | Request | Top 50 tabs Artists:  A B C D E F G H I J K L M N O P Q R S T U V W X Y Z 0-9

Masaya 1 Guitar Tabs – Bamboo

CD, Sheet music, Poster

Do you like Masaya 1? Share with your friends now
Bass TabsBass Tabs v2ChordsChords v2Chords v3Chords v4TabsTabs v2Ukulele
Artist/band: Bamboo

Intro
e|----3---3---3---3---3---3-3-3---0-0---0-0-0-0-0-0-0-0-0-0-0-0-0-0-0-------------|
B|----3---3---3---3---3---3-3-3---0-0---1-1-1-3-3-3-3-p1-1-1-3-3-3-3-3------------|
G|--------------------------0-0-0---0-0---2-2-2-2-2-2-2-2-2-2-2-2-2-2-------------|  (2x)
D|--------------------2----2-2-2---0-0---2-2-2-2-2-2-2-2-2-2-2-2-2-2--------------|
A|-2---2---2---3--------------------------0-0-0-0-0-0-0-0-0-0-0-0-0-0-------------|
E|-3---3--------------------------------------------------------------------------|

Verse
e|--3-3-3-3-3-3--3-3-3-3-3-3--0-0-0-0-0-0--0-0-0-0-0-0---------|
B|--3-3-3-3-3-3--3-3-3-3-3-3--1-1-1-1-1-1-1--3-3-3-3-3-3-------|
G|--0-0-0-0-0-0--0-0-0-0-0-0--2-2-2-2-2-2--2-2-2-2-2-2---------|
D|--0-0-0-0-0-0--2-2-2-2-2-2--2-2-2-2-2-2--2-2-2-2-2-2---------|
A|--2-2-2-2-2-2--3-3-3-3-3-3--0-0-0-0-0-0--0-0-0-0-0-0---------|
E|--3-3-3-3-3-3--x-x-x-x-x-x-----------------------------------|

e|--3-3-3-3-3-3--3-3-3-3-3-3--0-0-0-0-0-0--0-0-0-0-0-0-0----------|
B|--3-3-3-3-3-3--3-3-3-3-3-3--1-1-1-1-1-1-1--3-3-3-p1-1-1-1-------|
G|--0-0-0-0-0-0--0-0-0-0-0-0--2-2-2-2-2-2--2-2-2-2-2-2-2----------|
D|--0-0-0-0-0-0--2-2-2-2-2-2--2-2-2-2-2-2--2-2-2-2-2-2-2----------|
A|--2-2-2-2-2-2--3-3-3-3-3-3--0-0-0-0-0-0--0-0-0-0-0-0-0----------|
E|--3-3-3-3-3-3--x-x-x-x-x-x--------------------------------------|

e|--3-3-3-3-3-3--3-3-3-3-3-3--0-0-0-0-0-0---3~------|
B|--3-3-3-3-3-3--3-3-3-3-3-3--1-1-1-1-1-1-1---3~----|
G|--0-0-0-0-0-0--0-0-0-0-0-0--2-2-2-2-2-2---0~------|
D|--0-0-0-0-0-0--2-2-2-2-2-2--2-2-2-2-2-2---0~------|
A|--2-2-2-2-2-2--3-3-3-3-3-3--0-0-0-0-0-0---2~------|
E|--3-3-3-3-3-3--x-x-x-x-x-x------------------3~----|

Chorus
e|----3---3---3---3---3---3-3-3---0-0---0-0-0-0-0-0-0-0-0-0-0-3-3-3-3-3--------------|
B|----3---3---3---3---3---3-3-3---0-0---1-1-1-3-3-3-3-p1-1-1-1-1-1-1-1-1-1-----------|
G|--------------------------0-0-0---0-0---2-2-2-2-2-2-2-2-2-2-2-2-2-2-2-2------------|
D|--------------------2----2-2-2---0-0---2-2-2-2-2-2-2-2-2-2-2-2-2-2-2-2-------------|
A|-2---2---2---3--------------------------0-0-0-0-0-0-0-0-0-0-0-0-0-0-0-0------------|
E|-3---3-----------------------------------------------------------------------------|

e|----3---3---3---3---3---3-3-3---0-0---0-0-0-0-0-0-0--3~---------|
B|----3---3---3---3---3---3-3-3---0-0---1-1-1-3-3-3-3---3~--------|
G|--------------------------0-0-0---0-0---2-2-2-2-2-2----0~-------|
D|--------------------2----2-2-2---0-0---2-2-2-2-2-2----0~--------|
A|-2---2---2---3--------------------------0-0-0-0-0-0----2~-------|
E|-3---3----------------------------------------------------3~----|


e|----3---3---3---3---3---3-3-3---0-0---0-0-0-0-0-0-0-0-0-0-0-0-0-0-0-------------|
B|----3---3---3---3---3---3-3-3---0-0---1-1-1-3-3-3-3-p1-1-1-3-3-3-3-3------------|
G|--------------------------0-0-0---0-0---2-2-2-2-2-2-2-2-2-2-2-2-2-2-------------|
D|--------------------2----2-2-2---0-0---2-2-2-2-2-2-2-2-2-2-2-2-2-2--------------|
A|-2---2---2---3--------------------------0-0-0-0-0-0-0-0-0-0-0-0-0-0-------------|
E|-3---3--------------------------------------------------------------------------|


e|----3---3---3---3---3---3-3-3---0-0---0-0-0-0-0-0-0-0-0-0--0~-----------|
B|----3---3---3---3---3---3-3-3---0-0---1-1-1-3-3-3-3-p1-1-1--3~----------|
G|--------------------------0-0-0---0-0---2-2-2-2-2-2-2-2-2---2~----------|
D|--------------------2----2-2-2---0-0---2-2-2-2-2-2-2-2-2---2~-----------|
A|-2---2---2---3--------------------------0-0-0-0-0-0-0-0-0---0~----------|
E|-3---3------------------------------------------------------------------|


Verse 2

e|--3-3-3-3-3-3--3-3-3-3-3-3--0-0-0-0-0-0--0-0-0-0-0-0-0---------|
B|--3-3-3-3-3-3--3-3-3-3-3-3--1-1-1-1-1-1-1--3-3-3-p1-1-1-1------|
G|--0-0-0-0-0-0--0-0-0-0-0-0--2-2-2-2-2-2--2-2-2-2-2-2-2---------|
D|--0-0-0-0-0-0--2-2-2-2-2-2--2-2-2-2-2-2--2-2-2-2-2-2-2---------|
A|--2-2-2-2-2-2--3-3-3-3-3-3--0-0-0-0-0-0--0-0-0-0-0-0-0---------|
E|--3-3-3-3-3-3--x-x-x-x-x-x-------------------------------------|

e|--3-3-3-3-3-3--3-3-3-3-3-3--0-0-0-0-0-0--0-0-0-0-0-0-0---------|
B|--3-3-3-3-3-3--3-3-3-3-3-3--1-1-1-1-1-1-1--3-3-3-p1-1-1-1------|
G|--0-0-0-0-0-0--0-0-0-0-0-0--2-2-2-2-2-2--2-2-2-2-2-2-2---------|
D|--0-0-0-0-0-0--2-2-2-2-2-2--2-2-2-2-2-2--2-2-2-2-2-2-2---------|
A|--2-2-2-2-2-2--3-3-3-3-3-3--0-0-0-0-0-0--0-0-0-0-0-0-0---------|
E|--3-3-3-3-3-3--x-x-x-x-x-x-------------------------------------|

e|--3-3-3-3-3-3--3-3-3-3-3-3--0-0-0-0-0-0--0-0-0-0-0-0-0---------|
B|--3-3-3-3-3-3--3-3-3-3-3-3--1-1-1-1-1-1-1--3-3-3-p1-1-1-1------|
G|--0-0-0-0-0-0--0-0-0-0-0-0--2-2-2-2-2-2--2-2-2-2-2-2-2---------|
D|--0-0-0-0-0-0--2-2-2-2-2-2--2-2-2-2-2-2--2-2-2-2-2-2-2---------|
A|--2-2-2-2-2-2--3-3-3-3-3-3--0-0-0-0-0-0--0-0-0-0-0-0-0---------|
E|--3-3-3-3-3-3--x-x-x-x-x-x-------------------------------------|

e|--3-3-3-3-3-3--3-3-3-3-3-3---3~---12^-----|
B|--3-3-3-3-3-3--3-3-3-3-3-3---3~---12^-----|
G|--0-0-0-0-0-0--0-0-0-0-0-0---0~-----------|
D|--0-0-0-0-0-0--2-2-2-2-2-2---0~-----------|
A|--2-2-2-2-2-2--3-3-3-3-3-3---2~-----------|
E|--3-3-3-3-3-3--x-x-x-x-x-x---3~-----------|
Chorus 2

e|----3---3---3---3---3---3-3-3---0-0---0-0-0-0-0-0-0----------|
B|----3---3---3---3---3---3-3-3---0-0---1-1-1-1-1-1-1-1--------|
G|--------------------------0-0-0---0-0---2-2-2-2-2-2-2--------|
D|--------------------2----2-2-2---0-0---2-2-2-2-2-2-2---------|
A|-2---2---2---3--------------------------0-0-0-0-0-0-0--------|
E|-3---3-------------------------------------------------------|

e|-----------------|
B|-----------------|
G|-----------------|
D|--6-6-6---|  (16-|x) do this soft to loud
A|--4-4-4----------|
E|--x-x-x----------|

Then
e|---------------------------0-0-0--0-0-0-0-0-0-0-0--0-0-0/0-0-0-0------|
B|---------------------------3-3-3--1-1-1-1-1-1-3-3-3-p1-1-1/3-3-3-3----|
G|------------------7/9-9---0-0-0--0-0-0-0-0-0-0-0-0-0-0/0-0-0-0--------|  (2x)
D|--2-2-4-4-5-5--x/x-x---4-4-4--2-2-2-2-2-2-2-2-2-2-2/4-4-4-4-----------|
A|--2-2-4-4-5-5--5/7-7---x-x-x--3-3-3-3-3-3-3-3-3-3-3/x-x-x-x-----------|
E|--0-0-2-2-3-3-----------5-5-5--0--------------------------5-5-5-5-----|

e|---------------------------0-0-0--0-0-0-0-0-3-3-3-3-3--------|
B|---------------------------3-3-3--1-1-1-1-1-1-1-1-1-1-1-1----|
G|------------------7/9-9---0-0-0--0-0-0-0-0-0-0-0-0-0---------|
D|--2-2-4-4-5-5--x/x-x---4-4-4--2-2-2-2-2-2-2-2-2-2------------|
A|--2-2-4-4-5-5--5/7-7---x-x-x--3-3-3-3-3-3-3-3-3-3------------|
E|--0-0-2-2-3-3-----------5-5-5--0-----------------------------|

Last Chorus
e|--3-3-3-3-3-3--3-3-3-3-3-3--0-0-0-0-0-0--3-3-3-3-3-3---------|
B|--3-3-3-3-3-3--3-3-3-3-3-3--1-1-1-1-1-1-1--1-1-1-1-1-1-1-----|
G|--0-0-0-0-0-0--0-0-0-0-0-0--2-2-2-2-2-2--2-2-2-2-2-2---------|
D|--0-0-0-0-0-0--2-2-2-2-2-2--2-2-2-2-2-2--2-2-2-2-2-2---------|
A|--2-2-2-2-2-2--3-3-3-3-3-3--0-0-0-0-0-0--0-0-0-0-0-0---------|
E|--3-3-3-3-3-3--0-0-0-0-0-0--0-0-0-0-0-0--0-0-0-0-0-0---------|


e|--3-3-3-3-3-3--3-3-3-3-3-3--0-0-0-0-0-0--3~------|
B|--3-3-3-3-3-3--3-3-3-3-3-3--1-1-1-1-1-1-1--3~----|
G|--0-0-0-0-0-0--0-0-0-0-0-0--2-2-2-2-2-2--0~------|
D|--0-0-0-0-0-0--2-2-2-2-2-2--2-2-2-2-2-2--0~------|
A|--2-2-2-2-2-2--3-3-3-3-3-3--0-0-0-0-0-0--2~------|
E|--3-3-3-3-3-3--0-0-0-0-0-0--0-0-0-0-0-0--3~------|

Tab Key:

/ = slide up
^ = harmonics
p = pull off
~ = let note ring





Comments


Popular Bamboo tabs & chords
F.U 1 Bass Tabs
Alive Chords
F.U Chords
So Far Away 2 Chords
Someone Like You Chords
Peace Man Tabs
Umagang Kay Ganda 3 Tabs
Masaya Ukulele
Muli Ukulele
Take Me Down Ukulele


Song lyrics



↑ Back to top | Tablatures and chords are parodies/interpretations of the original songs. You may use it for private study, scholarship, research or language learning purposes only
© 2014 AZChords.com Contact us | Privacy policy | DMCA | Add/correct tabs | Request tabs | Top 50 tabs