>
 >
Last Days On A Cruise Ship

Last Days On A Cruise Ship Guitar Tabs

Bamboo - Last Days On A Cruise Ship chords, tabs, tablatures, lyrics

Guitar lessons | Add/correct | Request | Top 50 tabs Artists:  A B C D E F G H I J K L M N O P Q R S T U V W X Y Z 0-9

Last Days On A Cruise Ship Guitar Tabs – Bamboo

CD, Sheet music, Poster

Do you like Last Days On A Cruise Ship? Share with your friends now
ChordsTabsTabs v2Ukulele
Donated by
SHC Lucena City(BSN)
courtesy of:
Francis S.
Ira C.
Bamboo and friends

for comments txt:
09283150081
 
  G#   Gm    Cm     D5    Eb5   F5   Bb
|-4--||-3--||-3--||----||----||----||-6--|
|-4--||-3--||-4--||----||----||----||-6--|
|-5--||-3--||-5--||-7--||-8--||-10-||-7--|
|-6--||-5--||-5--||-7--||-8--||-10-||-8--|
|-6--||-5--||-3--||-5--||-6--||-8--||-8--|
|-4--||-3--||----||----||----||----||-6--|

Intro-G# Gm Cm D5-Eb5-F5 4x

|-----------------------------------------------------------|
|-----------------------------------------------------------|
|---------------------------------8h10-10b-8h10-8b~/--------|
|------------------------------10---------------------------|
|------6h8-8b-6h8-6/(3)-------------------------------------|
|---(8)-----------------------------------------------------|

|-----------------------------------------------------------|
|-----------------------------------------------------------|
|-----------------------------------------------------------|
|--8/10-8---------------------------------------------------|
|---------10--8-/6------------------------------------------|
|--------------------6-8~-/---------------------------------|

Verse-G# Gm Cm D5-Eb5-F5 2x
      G# Gm Cm 2x
Verse2-G# Gm Cm D5-Eb5-F5 2x
      G# Gm Cm 2x
Refrain-Bb G# 8x

Chorus-Bb G# 4x

Repeat Verse Refrain Chorus-

Bridge-Bb G# 4x
solo-
|---------------------------------------------------------------|
|--11h13--9-11--8--9p8-6~--4h6~---3h4-3--4/3-1------------------|
|--10--------------------------------------------3-1-3/5---1/3~-|
|-(12)----------------------------------------------------------|
|---------------------------------------------------------------|
|---------------------------------------------------------------|

|-----------------------------------------------------------|
|-----------------------------------------------------------|
|---------5--7h8p7-5~------7h8-10-12----12h13p12-10~--------|
|-----6h8---------------------------------------------------|
|-6h8-------------------------------------------------------|
|-----------------------------------------------------------|

|-----------------------------------------------------------|
|-11h13--9-11--8-9---6-8---4-6---3b~-4-3~-------------------|
|----------------------------------------3-0-3~-5/----------|
|-----------------------------------------------------------|
|-----------------------------------------------------------|
|-----------------------------------------------------------|

|-------------------------------------------------------------|
|----9-11-11b--9-(h11)-9-11/----11-13-13b--11h13-11-14/-16br~-|
|-10-------------------------10-------------------------------|
|-------------------------------------------------------------|
|-------------------------------------------------------------|
|-------------------------------------------------------------|

|-----------------------------------------------------------|
|-16p13--16-13--16-13--16-13--------------------------------|
|-----------------------------15^--13-s---------------------|
|-----------------------------------------------------------|
|-----------------------------------------------------------|
|-----------------------------------------------------------|

|-16p13----13-------------------------------------------------------|
|-------16----16----16---1313---13----------13----------------------|
|---------------------15------15---15-14-13----15p13h15-13^---------|
|---------------------------------------------------------15-13-15~/|
|-------------------------------------------------------------------|
|-------------------------------------------------------------------|

|-----------------------------------------------------------|
|-----------------------------------------------------------|
|-15b~---13h15-12---13-12-10~---8/7-------------------------|
|-----------------------------------8/10\8~-----------------|
|-----------------------------------------------------------|
|-----------------------------------------------------------|

then-
Bridge-Bb G# 4x
|-----------------------------------------------------------|
|-----------------------------------------------------------|
|-8/10-8~--------10/12-10~---------15/17-15~----------------|
|-----------------------------------------------------------|
|-----------------------------------------------------------|
|-----------------------------------------------------------|

Bridge/outro/chorus-Bb G# till fade...





Comments


Popular Bamboo tabs & chords
Noypi 2 Bass Tabs
Ang Gugma Ni Arshill Chords
By Mosquito Bytes Chords
Masaya Chords
Masaya 3 Chords
Alive Tabs
F.U Tabs
Blown Away Ukulele
Looking Out For No 1 Ukulele
So Far Away Ukulele


Song lyrics



↑ Back to top | Tablatures and chords are parodies/interpretations of the original songs. You may use it for private study, scholarship, research or language learning purposes only
© 2014 AZChords.com Contact us | Privacy policy | DMCA | Add/correct tabs | Request tabs | Top 50 tabs