» » »

There Will Be A Way Tabs (ver.1)

Artists:  A B C D E F G H I J K L M N O P Q R S T U V W X Y Z # 

There Will Be A Way Tabs (ver.1)

Bad Religion
Rating:
0/5 (0 votes)

Hard to play? Try these video lessons and learn fast.
                

Questions? Comments? Corrections (especially chorus)? 
Second part of solo? Email me.

Song Format:
INTRO
VERSE
CHORUS
VERSE
CHORUS
SOLO
CHORUS
VERSE2
CHORUS2


INTRO:

(verse is played softly over intro)

E|-----|
A|-7-7-|
D|-9-9-|

E|-------|
A|-7-7-7-|  (13x)
D|-9-9-9-|

E|-------------------|
A|-7-7-7-7-7-7-7-7-7-|
D|-9-9-9-9-9-9-9-9-9-|


VERSE:

   G   G G     D  D D  D
E|-3---3-3---------------|
A|-2---2-2---------------|
D|-0---0-0-----0--0-0--0-|
G|-0---0-0--0--2--2-2--2-| (4x)
B|-0---0-0--0--3--3-3--3-|
e|-------------2--2-2--2-|


CHORUS:

   C  D   C  B  A        C  D   EE  EEE EEE EEE EEE EEE EEEEEEEEE
E|--------------5-3h5---------------------------------------------|
A|-3--5---3--2--7-----3--3--5---77--777-777-777-777-777-777777777-|
D|-5--7---5--4--7--------5--7---99--999-999-999-999-999-999999999-|
G|-5--7---5--4-----------5--7-------------------------------------|
B|----------------------------------------------------------------|
e|----------------------------------------------------------------|


SOLO:

(use verse chords over solo)

E|---------------------------10-----------------------------------------|
A|---------------9-9---9-9p7--------------------------------------------|
D|--------7-7-9---------------------------------------------------------|
G|-7b8b7--------------------------7b8b7-9-7--7-7-7h9--9-9-9p7-7-7-7h9p7-|
B|----------------------------------------------------------------------|
e|----------------------------------------------------------------------|

(I can't quite get the part of the solo played during the chorus, but here's
the very end):

D|-9---7h9p7---5h7p5---4h5p4h5p4h5p4-


VERSE 2:

   G        D
E|-3--------------|
A|-2--------------|
D|-0--------0-----| (4x)
G|-0--------2-----|
B|-0--------3-----|
e|-3--------2-----|


CHORUS 2:

   C  D   C  B  A        C  D   C  B  A        C  D           D           D
E|--------------5-3h5-----------------5-3h5---------------------------------|
A|-3--5---3--2--7-----3--3--5---3--2--7-----3--3--5--3-5------5--3-5------5-|
D|-5--7---5--4--7--------5--7---5--4--7--------5--7------3-5--7------3-5--7-|
G|-5--7---5--4-----------5--7---5--4-----------5--7-----------7-----------7-|
B|--------------------------------------------------------------------------|
e|--------------------------------------------------------------------------|

   C  D   EE  EEE EEE EEE EEE EEE EEEEEEEEEE
E|-------------------------------------------|
A|-3--5---77--777-777-777-777-777-7777777777-|
D|-5--7---99--999-999-999-999-999-9999999999-|
G|-5--7--------------------------------------|
B|-------------------------------------------|
e|-------------------------------------------|
            
Hard to play? Try these video lessons and learn fast. | Correct




comments powered by Disqus
↑ Back to top | Tablatures and chords are parodies/interpretations of the original songs. You may use it for private study, scholarship, research or language learning purposes only