» » »

Bad Religion, Shades Of Truth Tabs (ver.1)

Artists:  A B C D E F G H I J K L M N O P Q R S T U V W X Y Z # 

Shades Of Truth Tabs (ver.1)

Bad Religion Tabs
 Rating:
4/5 (4 votes)
Shades Of Truth lessons Tabs too difficult? Try these video lessons and learn fast
                
LEGEND

h - Hammeron
p - Pulloff
/ - Slide Up
\ - Slide Down
() - Play Second Time

Bass Line for Intro
(0:00)
E----------------------------------------------------------||
B----------------------------------------------------------||
G----------------------------------------------------------||
D----------------------------------------------------------||
A--------------3-3------------0-0------------0-0-----------||
E-0/5-5-5-5-5-5---1-1-1-1-1-1-----3-3-3-3-3-3---0-0-0-0-0--||

Intro and Main Verse 
[On the second time miss out the open E+B and play  whats in brackets]
(0:16)
E-5-5--5-5--1-1--1-1--3-3--3-3--0-0--0-0-----------||
B-5-5--5-5--1-1--1-1--3-3--3-3--0-0--0-0-----------||
G--------------------------------------------------||
D-------------------------------(-7-7-7-7-7-7-7-7)-||
A-------------------------------(-7-7-7-7-7-7-7-7)-||
E-------------------------------(-5-5-5-5-5-5-5-5)-||

Pre-Chorus
E---------------------------------------------------||
B---------------------------------------------------||
G----------5-5--------------------------------------||
D-7-7-7-7--5-5--3-3-3-3--7-7--5-5-5-5--7-7--2-2-2-2-||
A-7-7-7-7--3-3--3-3-3-3--7-7--5-5-5-5--7-7--2-2-2-2-||
E-5-5-5-5-------1-1-1-1--5-5--3-3-3-3--5-5--0-0-0-0-||

E--------------------------------------------|
B--------------------------------------------|
G--------------------------------------------|
D--------------------------------------------|
A-0--------3-------------0-------------0-----|
E---------------1-------------3------------0-|

Chorus
E-------------------------------------------||
B-------------------------------------------||
G-------------------------------------------||
D-7-7-7-7--3-3-3-3--5-5-5-5-5-5-5-5---------||
A-7-7-7-7--3-3-3-3--5-5-5-5-5-5-5-5---------||
E-5-5-5-5--1-1-1-1--3-3-3-3-3-3-3-3---------||

After Chorus
(1:09)
E-------------------------||
B-------------------------||
G-----------------1-2-4---||
D-----3---------2---------||
A-0-3-------3-5-----------||
E-------3-5---------------||

Solo One
(1:55)
E-0--2--3--4--5558555---------------------------------5558555-------------
B-------------5555555--66686-66-6/8-8-10-8-8-8/6/5-5--5555555-6-6h8p6-66--
G----------------------55555-55-5/7-7--7-----7/5/4-4----------5-------55--
D-------------------------------------------------------------------------
A-------------------------------------------------------------------------
E-------------------------------------------------------------------------


E---------------------------5--------------------------------------------
B-----8h10-8p6-8p6-5h6p5------5------------------------------------------
G-5/7-7-------------------------7-5----5--75-------5-5-7-5---------------
D------------------------------------3--------3---5--------6-6-6--6-7-9--
A------------------------------------------------------------------------
E------------------------------------------------------------------------

E------------------13-13-13/15/13--------15--17-15--------------------|
B-10-10---10-----13--------------13-13/15--15-----15---5-6-5-0--2-1-2-|
G------9-9--9---------------------------------------------------------|
D------------10-------------------------------------------------------|
A---------------------------------------------------------------------|
E---------------------------------------------------------------------|


Play Bass Intro
Play Verse until end
Play Second Solo while the Verse is being Played
I will Tab the Second Solo soon

-=ArnoldLayne=-
            
Submit corrections

comments powered by Disqus
↑ Back to top | Bad Religion Tabs for Shades Of Truth. Lyrics for acoustic guitar and electric guitar. Tablatures and chords are parodies/interpretations of the original songs. You may use it for private study, scholarship, research or language learning purposes only