>
 >
Shades Of Truth 1

Shades Of Truth 1 Bass Tabs

Bad Religion - Shades Of Truth 1 chords, tabs, tablatures, lyrics

Guitar lessons | Add/correct | Request | Top 50 tabs Artists:  A B C D E F G H I J K L M N O P Q R S T U V W X Y Z 0-9

Shades Of Truth 1 Bass Tabs – Bad Religion

CD, Sheet music, Poster

Do you like Shades Of Truth 1? Share with your friends now
Bass Tabs

A great song!  The bass is always melody and parallels the guitar 
except during the chorus.

All notes are even eighth unless marked otherwise
Q=quarter
H=half
r=rest (with noted value)
Times are included because I can't include lyrics

Bass Intro/Verse [intense] (0:00)
G|---------------------------------------------------------------
D|---------------------------------------------------------------  (x7)
A|----0-0-0-0-0-0-3-3-------------0-0-------------0-0------------
E|-3------------------1-1-1-1-1-1-----3-3-3-3-3-3-----0-0-0-0-0-0
   Q

Chorus (0:50)
G|-------------------------------------
D|-------------------------------------  (x3)
A|-0-----------------------------------
E|-----1-1---3-3-3-3-3-3-3-3-----------
   H     H

Chorus Variant (1:01)
G|-------------------------------------
D|-------------------------------------  (x2)
A|-0-0-r-------------------------------
E|--------1-1-r--3-3-3-3-3-3-3-3-------
       Q      Q

Verse (1:08) (x4)

Chorus (1:37) (x3)

Variant (1:47) (x2)

Verse (1:56) (x6)

Chorus (2:39) (x3)

Variant (2:50) (x2)

Chorus (2:57) (x3)

Variant (3:07) (x2)

Chorus (3:14) (repeat until 3:42)

End (3:42)
G|------------------------------
D|------------------------------
A|-0----------------------------
E|----1-1--0--------------------
   H    H  (let ring)

Enjoy!





Comments


Popular Bad Religion tabs & chords
Anesthesia 2 Bass Tabs
Epiphany 2 Bass Tabs
Anesthesia Chords
Land Of Competition Chords
Punk Rock Song 1 Chords
Give You Nothing Tabs
No Direction Tabs
Overture 1 Tabs
You Tabs
Along The Way Ukulele


Song lyrics



↑ Back to top | Tablatures and chords are parodies/interpretations of the original songs. You may use it for private study, scholarship, research or language learning purposes only
© 2014 AZChords.com Contact us | Privacy policy | DMCA | Add/correct tabs | Request tabs | Top 50 tabs