>
 >
Requiem For Dissent 1

Requiem For Dissent 1 Guitar Tabs

Bad Religion - Requiem For Dissent 1 chords, tabs, tablatures, lyrics

Guitar lessons | Add/correct | Request | Top 50 tabs Artists:  A B C D E F G H I J K L M N O P Q R S T U V W X Y Z 0-9

Requiem For Dissent 1 Guitar Tabs – Bad Religion

CD, Sheet music, Poster

Do you like Requiem For Dissent 1? Share with your friends now
Bass TabsTabsTabs v2
Requiem for Dissent

Introdução

|--------------------------|
|--------------------------|
|---------5------------5---|
|-7-7-7-3-5-5--7-7-7-3-5-5-|
|-7-7-7-3-3-5--7-7-7-3-3-5-|
|-5-5-5-1---3--5-5-5-1---3-|

Verso

2 vezes
|---------------------------------------------------|
|---------------------------------------------------|
|---------5------------5----------------------------|
|-7-7-7-3-5-5--7-7-7-3-5-5--3-3-3-3-3-3-5-5-5-5-5-5-|
|-7-7-7-3-3-5--7-7-7-3-3-5--3-3-3-3-3-3-5-5-5-5-5-5-|
|-5-5-5-1---3--5-5-5-1---3--1-1-1-1-1-1-3-3-3-3-3-3-|

Refrão

|-------------------------------------------------------------------------------------|
|-------------------------------------------------------------------------------------|
|----------------5-5-5--------------------------------------5-5-5-------7-7-7---------|
|-7--7--7--3-3-3-5-5-5-7--7--7--3-3-3-5-5-5--7--7--7--3-3-3-5-5-5-5-5-5-7-7-7-3-3-5-5-|
|-7--7--7--3-3-3-3-3-3-7--7--7--3-3-3-5-5-5--7--7--7--3-3-3-3-3-3-5-5-5-5-5-5-3-3-5-5-|
|-5--5--5--1-1-1-------5--5--5--1-1-1-3-3-3--5--5--5--1-1-1-------3-3-3-------1-1-3-3-|

Solo 1 (0:31)

|-------------------------------------------------------------------------------------|
|-8/10-10-10-8/10-10-10-8/10-10-10-8/10-10-10-8/10-10-10-8/10-10-10-7b----------------|
|-7/9--------7/9--------7/9--------7/9--------7/9--------7/9--------7b----------------|
|-------------------------------------------------------------------------------------|
|-------------------------------------------------------------------------------------|
|-------------------------------------------------------------------------------------|

Solo 2 (1:03)
|-3/5-8p7p5-5-5-8p7p5---------------------------------------------------------|
|-3/5-------5-5-------7~------------------------------------------------------|
|---------------------7~-7-7p5--------5-7b------------------------------------|
|------------------------------7--5h7------7----------------------3-5/7-5-7-5-|
|--------------------------------------------------3-5/7-5-3--3h5-------------|
|----------------------------------------------3h5----------------------------|

|-----------------------------------------------------------------|
|-----------------------------------------10h13-10-8-8h10-8-10~~--|
|-----------10h12b----------10h12b--10h12-------------------------|
|-12b-10h12-------12b-10h12---------------------------------------|
|-----------------------------------------------------------------|
|-----------------------------------------------------------------|

Base do solo

  4 vezes
|-----------------------|
|-----------------------|
|-------5-5-5-7-7-7-----|
|-7-7-7-5-5-5-7-7-7-3-5-|
|-7-7-7-3-3-3-5-5-5-3-5-|
|-5-5-5-------------1-3-|





Comments


Popular Bad Religion tabs & chords
Slaves 1 Bass Tabs
You've Got A Chance Bass Tabs
Along The Way Chords
American Jesus 2 Chords
*** Armawhatever Tabs
Los Angeles Is Burning 2 Tabs
Pride And The Pallor Tabs
The Defence Tabs
American Jesus Ukulele
Modern Day Catastrophists Ukulele


Song lyrics



↑ Back to top | Tablatures and chords are parodies/interpretations of the original songs. You may use it for private study, scholarship, research or language learning purposes only
© 2014 AZChords.com Contact us | Privacy policy | DMCA | Add/correct tabs | Request tabs | Top 50 tabs