» » »

Let Them Eat War Tabs (ver.2)

Artists:  A B C D E F G H I J K L M N O P Q R S T U V W X Y Z # 

Let Them Eat War Tabs (ver.2)

Bad Religion
Rating:
0/5 (0 votes)

Hard to play? Try these video lessons and learn fast.
                A nice song off the new album. Standard tuning.

/ = slide up
\ = slide down
h = hammer-on
p = pull off
* = natural harmonic

Song structure:

Intro riff (twice)
Verse
Chorus
Intro riff (once)
Verse
Chorus
Intro riff (once)
Solo
Bridge (no guitar part)
Intro riff (once)
Chorus
Intro riff (1st bar)

----------------------------------------------------------------------------

Intro riff (bit iffy at the end)

e-------------------------------------------------------------------------|
B-------------------------------------------------------------------------|
G-0000-000-000-0--0-000--0--0--0--0--0--0--0--0--0-----0-0-0----0-0---0-0-|
D-5555-777-999-10-9-999-10-10-10-12-12-12-14-14-10h12-10-9-9h10-9-7h9-7-5-|
A-------------------------------------------------------------------------|
E-------------------------------------------------------------------------|

Verse 2x (palm mute throughout)

e--------------------------------------------|
B--------------------------------------------|
G--------------------------------------------|
D--5-(16x)--3-(16x)--7-(16x)--5-(16x)--------|
A--5--------3--------7--------5--------------|
E--3--------1--------5--------3--------------|

Chorus x4

e--------------------------------------------|
B--------------------------------------------|
G--8-(8x)--5-(8x)----------------------------|
D--8-------5-------5-(16x)-------------------|
A--6-------3-------5-------------------------|
E------------------3-------------------------|

Solo

e------------------------------------------------------------------3--------|
B----------------------------------------------------------------3----------|
G----------------------------------------5--5h7-5-4-4h5-4--0h2-4------------|
D---3/5-3/5-3/5-3/5-3/5--3/5-3/5-3/5-3/5------------------------------------|
A---------------------------------------------------------------------------|
E---------------------------------------------------------------------------|

Bridge (played once or twice)

e----------*12--|
B--*12----------|
G------*12------|
D---------------|
A---------------|
E---------------|

----------------------------------------------------------------------------

And there you go!
            
Hard to play? Try these video lessons and learn fast. | Correct




comments powered by Disqus
↑ Back to top | Tablatures and chords are parodies/interpretations of the original songs. You may use it for private study, scholarship, research or language learning purposes only