>
 >
Epiphany 2

Epiphany 2 Bass Tabs

Bad Religion - Epiphany 2 chords, tabs, tablatures, lyrics

Guitar lessons | Add/correct | Request | Top 50 tabs Artists:  A B C D E F G H I J K L M N O P Q R S T U V W X Y Z 0-9

Epiphany 2 Bass Tabs – Bad Religion

CD, Sheet music, Poster

Do you like Epiphany 2? Share with your friends now
Bass Tabs
Bad Religion-Epiphany(intro)

Play this with a pick.I know this intro is 100% right. 
I talked to the bass player from Bad Religion and this is how he plays it. 

=play a lot
/ or \=slide up or slide down

PLEASE RATE THIS TAB!

Intro(play this for the verse too)
G-10---0-----7----6-				
D--0---10----8----7-  
A-------------------
E-------------------				          

If you can't play the above intro,play this...
G-----------------
D-----------------
A-5>--------------
E----5>--6>--5>---

Fill 1
G-------------------
D-------------------
A-------------------
E—7—7-5—5-3—3-2-----

Bridge “We arrive at this place…”(play this slowly)
G----------------------------------
D----------------------------------
A----------------------------------
E-3-2-3-4-5-6-7-8-9-12-------------

Chorus
G-------------------------------------
D-------------------------------------
A—5>-------------7-7-------7-8-7-5----
E-----5-5-5—6>--------8>--------------

2nd Chorus
G------------------------
D------------------------
A—5>--------5>-----------
E------5>--------6>------

Bridge
G----------------------------------------------------------------------
D-------7-6-5-----------------------------------5-6-7----9-9-9-9-------
A-5-5----------7-6-5-------------------5-6-7---------------------------
E-----------------------7-6-5---5-6-7----------------------------------
Bridge 2 “It’s oh so relative…”
G---------------------------------------------------------------------------
D-3-1-----------------------------------------------------------------------
A------3-1--------------5-7--------7-9-----------12>--10-9-7-5---5----------
E------------3-1---5-7--------7-9-------10-12------------------5------------

Bridge 3 (Guitar solo)
G----------------------------------------------------------------------------
D----------------------------------------------------------------------------
A-5>------5>-------5>------5>------5—5-3-5—5-3-5—7-5-7—7-5-7—9-7-9—9-7-9—12--
E------5>------6>-------5>------6>-------------------------------------------

----------------------
----------------------
--10-12/15>-----------
----------------------

Order:
Intro-6 times
Fill-1 time
Bridge-1 time
Chorus-2 times
2nd Chorus-2 times
Intro-4 times
Fill-1 time
Bridge-1 time
Chorus-2 times
2nd Chorus-4 times
Bridge-2 times
Bridge 2-1 time
Bridge 3-1 time
Chorus-2 times
2nd Chorus-play until the end of the song





Comments


Popular Bad Religion tabs & chords
Dont Pray On Me Chords
Hooray For Me.. Chords
Incomplete Chords
Atomic Garden Drum Tabs
Automatic Man Tabs
Come Join Us (Solo) Tabs
Generator 2 Tabs
Victims Of The Revolution Tabs
When Tabs
Slumber Ukulele


Song lyrics



↑ Back to top | Tablatures and chords are parodies/interpretations of the original songs. You may use it for private study, scholarship, research or language learning purposes only
© 2014 AZChords.com Contact us | Privacy policy | DMCA | Add/correct tabs | Request tabs | Top 50 tabs