>
 >
Day After Day

Day After Day Guitar Tabs

Badfinger - Day After Day chords, tabs, tablatures, lyrics

Guitar lessons | Add/correct | Request | Top 50 tabs Artists:  A B C D E F G H I J K L M N O P Q R S T U V W X Y Z 0-9

Day After Day Guitar Tabs – Badfinger

CD, Sheet music, Poster

Do you like Day After Day? Share with your friends now
ChordsChords v2TabsTabs v2Ukulele
                                  DAY AFTER DAY
                            As recorded by Badfinger
                        (From the 1971 Album STRAIGHT UP)

Words and Music by Pete Ham
Arranged by Produced by George Harrison

           F                   Bb                    C                    G
      1 3 3 2 1 1          x 1 3 3 3 1          x 3 2 0 1 0          3 2 0 0 3 3

          AmV                 BbVI                 CIII                  Gm
      5 7 7 5 5 5          6 8 8 7 6 6          x 3 5 5 5 3          3 5 5 3 3 3

Gtr I (E A D G B E) - 'Gtr. 1 (Slide Guitar)'
Gtr II (E A D G B E) - 'Gtr. 2 (Acoustic Guitar)'
Gtr III (E A D G B E) - 'Piano Arr. For Guitar'
Gtr IV (E A D G B E) - 'Piano Arr. For Guitar (Lower Notes)'
Gtr V (E A D G B E) - 'Gtr. 3 (Electric Guitar)'

 Intro
  Moderately slow Q=102
  F                      Bb                     F
 4/4
  Gtr I
                          ~~~                    ~~~
  Q    e  e  Q     q      Q.      q    e  q      H.            Q
|----------------------|-11------10-----------|---------------------|
|-----10-11-13\--------|--------------13-11---|-13------------13s===|
|-----------------10---|----------------------|---------------------|
|----------------------|----------------------|---------------------|
|----------------------|----------------------|---------------------|
|----------------------|----------------------|---------------------|
|
| Gtr II
| E E  E  E  E  E  E E    E  E E  E E  E  E E    E  E E E E E  E E
|-1----1--1--------1---|--1----1--1-------1---|--1----1-1------1----|
|-1----1--1--------1-1-|--3--3-3--3-3-----3-3-|--1----1-1------1-1--|
|-2-2--2--2--2-----2-2-|--3--3-3--3-3--3--3-3-|--2--2-2-2-2----2-2--|
|-3-3--3--3--3--3--3-3-|--3--3----3-3--3--3-3-|--3--3-3-3-3-3--3-3--|
|-3-3-----3--3--3--3-3-|--1--1------1--1----1-|--3--3---3-3-3--3-3--|
|-1-1--------1--1----1-|----------------------|--1--1-----1-1----1--|


                     1st Verse
                                        Bb                F
   ~~
   W                  W                 W                 W
|------------------||-----------------|-----------------|-----------------|
|-22---------------||-----------------|-----------------|-----------------|
|------------------||-----------------|-----------------|-----------------|
|------------------||-----------------|-----------------|-----------------|
|------------------||-----------------|-----------------|-----------------|
|------------------||-----------------|-----------------|-----------------|
|
|  E E E E E E E E    E E E E E E E E   E E E E E E E E   E E E E E E E E
|--1---1-1-----1---||-1---1-1-----1---|-1---1-1-----1---|-1---1-1-----1---|
|--1---1-1-----1-1-||-1---1-1-----1-1-|-3-3-3-3-3---3-3-|-1---1-1-----1-1-|
|--2-2-2-2-2---2-2-||-2-2-2-2-2---2-2-|-3-3-3-3-3-3-3-3-|-2-2-2-2-2---2-2-|
|--3-3-3-3-3-3-3-3-||-3-3-3-3-3-3-3-3-|-3-3---3-3-3-3-3-|-3-3-3-3-3-3-3-3-|
|--3-3---3-3-3-3-3-||-3-3---3-3-3-3-3-|-1-1-----1-1---1-|-3-3---3-3-3-3-3-|
|--1-1-----1-1---1-||-1-1-----1-1---1-|-----------------|-1-1-----1-1---1-|
|
| Gtr IV
|  W                  W                 W                 W
|------------------||-----------------|-----------------|-----------------|
|------------------||-----------------|-----------------|-----------------|
|------------------||-----------------|-3---------------|-----------------|
|------------------||-3---------------|-3---------------|-3---------------|
|------------------||-3---------------|-1---------------|-3---------------|
|------------------||-1---------------|-----------------|-1---------------|


                                      Bb                F
  Gtr II
  E E E E E E E E   E E E E E E E E   E E E E E E E E   E E E E E E E E
|-1---1-1-----1---|-1---1-1-----1---|-1---1-1-----1---|-1---1-1-----1---|
|-1---1-1-----1-1-|-1---1-1-----1-1-|-3-3-3-3-3---3-3-|-1---1-1-----1-1-|
|-2-2-2-2-2---2-2-|-2-2-2-2-2---2-2-|-3-3-3-3-3-3-3-3-|-2-2-2-2-2---2-2-|
|-3-3-3-3-3-3-3-3-|-3-3-3-3-3-3-3-3-|-3-3---3-3-3-3-3-|-3-3-3-3-3-3-3-3-|
|-3-3---3-3-3-3-3-|-3-3---3-3-3-3-3-|-1-1-----1-1---1-|-3-3---3-3-3-3-3-|
|-1-1-----1-1---1-|-1-1-----1-1---1-|-----------------|-1-1-----1-1---1-|
|
| Gtr IV
| W                 W                 W                 W
|-----------------|-----------------|-----------------|-----------------|
|-----------------|-----------------|-----------------|-----------------|
|-----------------|-----------------|-3---------------|-----------------|
|-----------------|-3---------------|-3---------------|-3---------------|
|-----------------|-3---------------|-1---------------|-3---------------|
|-----------------|-1---------------|-----------------|-1---------------|


                                1st Chorus
                                 C
  E E E E E  E     E     E       E E E E E E E E
|-1---1-1----------1----------||-0---0-0-----0---|
|-1---1-1----------1-----1----||-1---1-1-1---1-1-|
|-2-2-2-2-2--------2-----2----||-0-0-0-0-0-0-0-0-|
|-3-3-3-3-3--3-----3-----3----||-2-2---2-2-2-2-2-|
|-3-3---3-3--3-----3-----3----||-3-3-----3-3---3-|
|-1-1-----1--1-----------1----||-----------------|
|
| Q   E E E  S  S  S  S  S  S    H       H
|-----------------------17-18-||-8---------------|
|--------------------18-------||-8---------------|
|---------2-14-15-17----------||-5---------------|
|-------3---------------------||-----------------|
|-----3-----------------------||-----------------|
|-----------------------------||-----------------|


  G                 BbVI  Am    Gm
  E E E E E E E E   E E E E E E E E
|-3---3-3-----3---|-6-----5-----3-3--|
|-3---3-3-----3-3-|-6-6-6-5-5-5-3-3--|
|-0-0-0-0-0---0-0-|-7-7-7-5-5-5-3-3--|
|-0-0-0-0-0-0-0-0-|-8-8-8-7-7-7-5-5--|
|-2-2---2-2-2-2-2-|-8-8-8-7-7-7-5-5--|
|-3-3-----3-3---3-|-6-6---6-5---3----|
|
| W                 W
|-----------------|------------------|
|-----------------|------------------|
|-----------------|------------------|
|-----------------|------------------|
|-----------------|------------------|
|-----------------|------------------|


  F                             C
  E E E E E  E     E     E      E E E E E E E E
|-1---1-1----------1----------|-0---0-0-----0---|
|-1---1-1----------1-----1----|-1---1-1-1---1-1-|
|-2-2-2-2-2--------2-----2----|-0-0-0-0-0-0-0-0-|
|-3-3-3-3-3--3-----3-----3----|-2-2---2-2-2-2-2-|
|-3-3---3-3--3-----3-----3----|-3-3-----3-3---3-|
|-1-1-----1--1-----------1----|-----------------|
|
| Q   Q   E  S  S  S  S  S  S   H       H
|-----------------------17-18-|-3---------------|
|--------------------18-------|-1---------------|
|-----------14-15-17----------|-0---------------|
|-----------------------------|-----------------|
|-----------------------------|-----------------|
|-----------------------------|-----------------|


  G                 BbVI  Am    Gm
  E E E E E E E E   E E E E E E E E
|-3---3-3-----3---|-6-----5-----3-3--|
|-3---3-3-----3-3-|-6-6-6-5-5-5-3-3--|
|-0-0-0-0-0---0-0-|-7-7-7-5-5-5-3-3--|
|-0-0-0-0-0-0-0-0-|-8-8-8-7-7-7-5-5--|
|-2-2---2-2-2-2-2-|-8-8-8-7-7-7-5-5--|
|-3-3-----3-3---3-|-6-6---6-5---3----|
|
| W                 W
|-----------------|------------------|
|-----------------|------------------|
|-----------------|------------------|
|-----------------|------------------|
|-----------------|------------------|
|-----------------|------------------|


  F                         BbVI
  Gtr II
   E  E  E  E  E  E  E  E    E  E  E  E  E  E  E  E
|--1-----1--1--------1----|--6-----6--6--------6----|
|--1-----1--1--------1--1-|--6-----6--6--------6--6-|
|--2--2--2--2--2-----2--2-|--7--7--7--7--7-----7--7-|
|--3--3--3--3--3--3--3--3-|--8--8--8--8--8--8--8--8-|
|--3--3-----3--3--3--3--3-|--8--8-----8--8--8--8--8-|
|--1--1--------1--1-----1-|--6--6--------6--6-----6-|
|
| Gtr III
|  E  E  E  E  E  E  E  E    E  E  E  E  E  E  E  E
|----13-12-13----13-12-13-|----13-12-13----13-12-13-|
|-13----------13----------|-13----------13----------|
|-------------------------|-------------------------|
|-------------------------|-------------------------|
|-------------------------|-------------------------|
|-------------------------|-------------------------|


  F                         BbVI
   E  E  E  E  E  E  E  E    E  E  E  E  E  E  E  E
|--1-----1--1--------1----|--6-----6--6--------6----||
|--1-----1--1--------1--1-|--6-----6--6--------6--6-||
|--2--2--2--2--2-----2--2-|--7--7--7--7--7-----7--7-||
|--3--3--3--3--3--3--3--3-|--8--8--8--8--8--8--8--8-||
|--3--3-----3--3--3--3--3-|--8--8-----8--8--8--8--8-||
|--1--1--------1--1-----1-|--6--6--------6--6-----6-||
|
|  E  E  E  E  E  E  E  E    E  E  E  E  E  E  E  E
|----13-12-13----13-12-13-|----13-12-13-------------||
|-13----------13----------|-13----------13----------||
|-------------------------|----------------14-12----||
|-------------------------|----------------------15-||
|-------------------------|-------------------------||
|-------------------------|-------------------------||


 2nd Verse
  F                 Bb                F
  Gtr II
  E E E E E E E E   E E E E E E E E   E E E E E E E E    E  E E E E E E E
|-1---1-1-----1---|-1---1-1-----1---|-1---1-1-----1---|--1----1-1-----1---|
|-1---1-1-----1-1-|-3-3-3-3-3---3-3-|-1---1-1-----1-1-|--1----1-1-----1-1-|
|-2-2-2-2-2---2-2-|-3-3-3-3-3-3-3-3-|-2-2-2-2-2---2-2-|--2--2-2-2-2---2-2-|
|-3-3-3-3-3-3-3-3-|-3-3---3-3-3-3-3-|-3-3-3-3-3-3-3-3-|--3--3-3-3-3-3-3-3-|
|-3-3---3-3-3-3-3-|-1-1-----1-1---1-|-3-3---3-3-3-3-3-|--3--3---3-3-3-3-3-|
|-1-1-----1-1---1-|-----------------|-1-1-----1-1---1-|--1--1-----1-1---1-|
|
|                   Gtr IV
| W                 W                 Q   E Q   E E E   +Q    E Q   E Q
|-----------------|-----------------|-----------------|-------------------|
|-----------------|-----------------|-------1---------|-------1-1---------|
|-----------------|-----------------|-------2-----0-2-|-(2)-----2-----0---|
|-----------------|-----------------|-----3-3---3-----|---------3---3-----|
|-3---------------|-----------------|-----------------|-------------------|
|-1---------------|-----------------|-----1-----------|-------------------|


                    Bb                F
  E E E E E E E E   E E E E E E E E   E  E E E E E E E    E  E E E E E E E
|-1---1-1-----1---|-1---1-1-----1---|-1----1-1-----1---|--1----1-1-----1---||
|-1---1-1-----1-1-|-3-3-3-3-3---3-3-|-1----1-1-----1-1-|--1----1-1-----1-1-||
|-2-2-2-2-2---2-2-|-3-3-3-3-3-3-3-3-|-2--2-2-2-2---2-2-|--2--2-2-2-2---2-2-||
|-3-3-3-3-3-3-3-3-|-3-3---3-3-3-3-3-|-3--3-3-3-3-3-3-3-|--3--3-3-3-3-3-3-3-||
|-3-3---3-3-3-3-3-|-1-1-----1-1---1-|-3--3---3-3-3-3-3-|--3--3---3-3-3-3-3-||
|-1-1-----1-1---1-|-----------------|-1--1-----1-1---1-|--1--1-----1-1---1-||
|
| W                 W                 H.           Q     +Q    E Q   E Q
|-----------------|-----------------|------------------|-------------------||
|-----------------|-----------------|------------------|-------------1-----||
|-----------------|-----------------|------------------|-------0-2---------||
|-3---------------|-----------------|-3------------3---|-(3)-----------3---||
|-----------------|-----------------|-3----------------|-------------------||
|-----------------|-----------------|-1----------------|-------------------||


 2nd Chorus
  C                 G                 BbVI  Am    Gm
  E E E E E E E E   E E E E E E E E   E E E E E E E E
|-0---0-0-----0---|-3---3-3-----3---|-6-----5-----3-3-|
|-1---1-1-1---1-1-|-3---3-3-----3-3-|-6-6-6-5-5-5-3-3-|
|-0-0-0-0-0-0-0-0-|-0-0-0-0-0---0-0-|-7-7-7-5-5-5-3-3-|
|-2-2---2-2-2-2-2-|-0-0-0-0-0-0-0-0-|-8-8-8-7-7-7-5-5-|
|-3-3-----3-3---3-|-2-2---2-2-2-2-2-|-8-8-8-7-7-7-5-5-|
|-----------------|-3-3-----3-3---3-|-6-6---6-5---3---|
|
| H       H         W                 W
|-----------------|-----------------|-----------------|
|-----------------|-----------------|-----------------|
|-0---------------|-----------------|-----------------|
|-2---------------|-----------------|-----------------|
|-3---------------|-----------------|-----------------|
|-----------------|-----------------|-----------------|


  F                             C
  E E E E E  E     E     E      E E E E E E E E
|-1---1-1----------1----------|-0---0-0-----0---|
|-1---1-1----------1-----1----|-1---1-1-1---1-1-|
|-2-2-2-2-2--------2-----2----|-0-0-0-0-0-0-0-0-|
|-3-3-3-3-3--3-----3-----3----|-2-2---2-2-2-2-2-|
|-3-3---3-3--3-----3-----3----|-3-3-----3-3---3-|
|-1-1-----1--1-----------1----|-----------------|
|
| Q   Q   E  S  S  S  S  S  S   H       H
|-----------------------17-18-|-3---------------|
|--------------------18-------|-1---------------|
|-----------14-15-17----------|-0---------------|
|-----------------------------|-----------------|
|-----------------------------|-----------------|
|-----------------------------|-----------------|


  G                 BbVI  Am    Gm
  E E E E E E E E   E E E E E E E E
|-3---3-3-----3---|-6-----5-----3-3--|
|-3---3-3-----3-3-|-6-6-6-5-5-5-3-3--|
|-0-0-0-0-0---0-0-|-7-7-7-5-5-5-3-3--|
|-0-0-0-0-0-0-0-0-|-8-8-8-7-7-7-5-5--|
|-2-2---2-2-2-2-2-|-8-8-8-7-7-7-5-5--|
|-3-3-----3-3---3-|-6-6---6-5---3----|
|
| W                 W
|-----------------|------------------|
|-----------------|------------------|
|-----------------|------------------|
|-----------------|------------------|
|-----------------|------------------|
|-----------------|------------------|


  F                         BbVI
   Q     Q     H             W
|--1----------------------|-------------------------|
|--1----------------------|-------------------------|
|--2----------------------|-------------------------|
|--3----------------------|-------------------------|
|--3----------------------|-------------------------|
|--1----------------------|-------------------------|
|
| Gtr III
|  E  E  E  E  E  E  E  E    E  E  E  E  E  E  E  E
|----13-12-13----13-12-13-|----13-12-13----13-12-13-|
|-13----------13----------|-13----------13----------|
|-------------------------|-------------------------|
|-------------------------|-------------------------|
|-------------------------|-------------------------|
|-------------------------|-------------------------|


  F                         BbVI
   W                         W
|-------------------------|-----------------------||
|-------------------------|-----------------------||
|-------------------------|-----------------------||
|-------------------------|-----------------------||
|-------------------------|-----------------------||
|-------------------------|-----------------------||
|
|  E  E  E  E  E  E  E  E    E  E  E  E  E  E  Q
|----13-12-13----13-12-13-|----13-15-17-18-20-22--||
|-13----------13----------|-15--------------------||
|-------------------------|-----------------------||
|-------------------------|-----------------------||
|-------------------------|-----------------------||
|-------------------------|-----------------------||


 Guitar Solo
  F                           Bb
  Gtrs I, V
                                ~~~~
    Q      e   e  Q     q       Q.      q    E  q
|---------------------------|-/11------10-----------|
|--------/10--11-13\--------|---------------13s11---|
|----------------------10---|-----------------------|
|---------------------------|-----------------------|
|---------------------------|-----------------------|
|---------------------------|-----------------------|
|
| Gtr II
|   E  E   E   E  E  E  E E     E  E E  E E  E  E E
|---1------1---1--------1---|---1----1--1-------1---|
|---1------1---1--------1-1-|---3--3-3--3-3-----3-3-|
|---2--2---2---2--2-----2-2-|---3--3-3--3-3--3--3-3-|
|---3--3---3---3--3--3--3-3-|---3--3----3-3--3--3-3-|
|---3--3-------3--3--3--3-3-|---1--1------1--1----1-|
|---1--1----------1--1----1-|-----------------------|
|
| Gtr IV
|   Q      Q      H             W
|-[20]----------------------|-----------------------|
|---------------------------|-----------------------|
|---------------------------|-----------------------|
|---3-----(3)---------------|-----------------------|
|---3-----(3)---------------|-----------------------|
|---1-----(1)---------------|-----------------------|
    Q     +H.


  F
    ~~~                               ~~~
    W                 E     E    e    Q         e     E    E
|-------------------|-----------17---15\-------13---------------|
|-/13---------------|-----/13-----------------------/15s==13----|
|-------------------|-------------------------------------------|
|-------------------|-------------------------------------------|
|-------------------|-------------------------------------------|
|-------------------|-------------------------------------------|
|
|   E E E E E E E E   E     E    E    E    E    E     E    E
|---1---1-1-----1---|-1----------1----1---------------1---------|
|---1---1-1-----1-1-|-1----------1----1---------------1----1----|
|---2-2-2-2-2---2-2-|-2-----2----2----2----2----------2----2----|
|---3-3-3-3-3-3-3-3-|-3-----3----3----3----3----3-----3----3----|
|---3-3---3-3-3-3-3-|-3-----3---------3----3----3-----3----3----|
|---1-1-----1-1---1-|-1-----1--------------1----1----------1----|
|
|                     <
|   H       H         S S   S S  S S  S  S S S  S S   S S  S S
|-------------------|-------------------------------------------|
|-------------------|-------------------------------------------|
|---2-------2-------|-2-2---2-2--2-2--2--2-2-2--2-2---2-2--2-2--|
|---3-------3-------|-3-3---3-3--3-3--3--3-3-3--3-3---3-3--3-3--|
|-------------------|-------------------------------------------|
|---1-------1-------|-1-1---1-1--1-1--1--1-1-1--1-1---1-1--1-1--|


                          Bb
                            ~~~~
  Q     e  e  Q     q       Q.      q    E  q
|-----------------------|-/15------13---11s10---|
|-----/10-11-13\--------|-----------------------|
|------------------10---|-----------------------|
|-----------------------|-----------------------|
|-----------------------|-----------------------|
|-----------------------|-----------------------|
|
| E E   E  E  E  E  E E     E  E E  E E  E  E E
|-1-----1--1--------1---|---1----1--1-------1---|
|-1-----1--1--------1-1-|---3--3-3--3-3-----3-3-|
|-2-2---2--2--2-----2-2-|---3--3-3--3-3--3--3-3-|
|-3-3---3--3--3--3--3-3-|---3--3----3-3--3--3-3-|
|-3-3------3--3--3--3-3-|---1--1------1--1----1-|
|-1-1---------1--1----1-|-----------------------|
|
| W                         W
|-----------------------|-----------------------|
|-----------------------|-----------------------|
|-2---------------------|-----------------------|
|-3---------------------|-----------------------|
|-----------------------|-----------------------|
|-1---------------------|-----------------------|


  F
    ~~~~                   ~~
    H.             Q       W
|-----------------------|------------------------||
|-/13------------/15\---|-10---------------------||
|-----------------------|------------------------||
|-----------------------|------------------------||
|-----------------------|------------------------||
|-----------------------|------------------------||
|
|   E  E E E E E   E  E    E E E   E   E E E E
|---1----1-1-------1----|--1---1---1-------1-----||
|---1----1-1-------1--1-|--1---1---1-------1-1---||
|---2--2-2-2-2-----2--2-|--2-2-2---2---2---2-2---||
|---3--3-3-3-3-3---3--3-|--3-3-3---3---3-3-3-3---||
|---3--3---3-3-3---3--3-|--3-3-----3---3-3-3-3---||
|---1--1-----1-1------1-|--1-1---------1-1---1---||
|
|                            |---3---|
|   W                      E Q   Q   Q   E E E
|-----------------------|------------------------||
|-----------------------|------------------------||
|-----------------------|----2---2---2---2-2-2---||
|-----------------------|----3---3---3---3-3-3---||
|-----------------------|------------------------||
|-----------------------|----1---1---1---1-1-1---||


 3rd Chorus
  C                 G
  W                 W
|-----------------|-----------------|
|-----------------|-----------------|
|-----------------|-----------------|
|-----------------|-----------------|
|-----------------|-----------------|
|-----------------|-----------------|
|
| E E E E E E E E   E E E E E E E E
|-0---0-0-----0---|-3---3-3-----3---|
|-1---1-1-1---1-1-|-3---3-3-----3-3-|
|-0-0-0-0-0-0-0-0-|-0-0-0-0-0---0-0-|
|-2-2---2-2-2-2-2-|-0-0-0-0-0-0-0-0-|
|-3-3-----3-3---3-|-2-2---2-2-2-2-2-|
|-----------------|-3-3-----3-3---3-|
|
| W                 W
|-----------------|-----------------|
|-----------------|-----------------|
|-----------------|-----------------|
|-----------------|-----------------|
|-----------------|-----------------|
|-----------------|-----------------|


  BbVI      Am  Gm   F
  W                  Q     e     e  e   e    e    e
|------------------|-----------------------------------|
|------------------|-------------------15---17---18----|
|------------------|------14----15-17--12---14---15----|
|------------------|------12----13-15------------------|
|------------------|-----------------------------------|
|------------------|-----------------------------------|
|                    Q     e     e  e   e    e    e
|
| E E E E E E E  E   E E   E     E  E   E    E    E
|-6-----5-----3--3-|-1-----1-----1-----------1---------|
|-6-6-6-5-5-5-3--3-|-1-----1-----1-----------1----1----|
|-7-7-7-5-5-5-3--3-|-2-2---2-----2--2--------2----2----|
|-8-8-8-7-7-7-5--5-|-3-3---3-----3--3---3----3----3----|
|-8-8-8-7-7-7-5--5-|-3-3---------3--3---3----3----3----|
|-6-6---6-5---3----|-1-1------------1---1---------1----|
|
| W                  E E.    E.     E.    S  S S  S S
|------------------|-----------------------------------|
|------------------|-----------------------------------|
|------------------|---2-----2------2-----2--2-2--2-2--|
|------------------|---3-----3------3-----3--3-3--3-3--|
|------------------|-----------------------------------|
|------------------|---1-----1------1-----1--1-1--1-1--|


  C                  G                 BbVI  Am    Gm
   ~~
   W                 W                 W
|------------------|-----------------|-----------------|
|-20---------------|-----------------|-----------------|
|-17---------------|-----------------|-----------------|
|------------------|-----------------|-----------------|
|------------------|-----------------|-----------------|
|------------------|-----------------|-----------------|
|  W
|
|  E E E E E E E E   E E E E E E E E   E E E E E E E E
|--0---0-0-----0---|-3---3-3-----3---|-6-----5-----3-3-|
|--1---1-1-1---1-1-|-3---3-3-----3-3-|-6-6-6-5-5-5-3-3-|
|--0-0-0-0-0-0-0-0-|-0-0-0-0-0---0-0-|-7-7-7-5-5-5-3-3-|
|--2-2---2-2-2-2-2-|-0-0-0-0-0-0-0-0-|-8-8-8-7-7-7-5-5-|
|--3-3-----3-3---3-|-2-2---2-2-2-2-2-|-8-8-8-7-7-7-5-5-|
|------------------|-3-3-----3-3---3-|-6-6---6-5---3---|
|
|  W                 W                 W
|------------------|-----------------|-----------------|
|------------------|-----------------|-----------------|
|------------------|-----------------|-----------------|
|------------------|-----------------|-----------------|
|------------------|-----------------|-----------------|
|------------------|-----------------|-----------------|


  F                 BbVI
  W                  W
|-----------------|-------------------------||
|-----------------|-------------------------||
|-----------------|-------------------------||
|-----------------|-------------------------||
|-----------------|-------------------------||
|-----------------|-------------------------||
|
| E E E E E E E E    E  E  E  E  E  E  E  E
|-1---1-1-----1---|--6-----6--6--------6----||
|-1---1-1-----1-1-|--6-----6--6--------6--6-||
|-2-2-2-2-2---2-2-|--7--7--7--7--7-----7--7-||
|-3-3-3-3-3-3-3-3-|--8--8--8--8--8--8--8--8-||
|-3-3---3-3-3-3-3-|--8--8-----8--8--8--8--8-||
|-1-1-----1-1---1-|--6--6--------6--6-----6-||
|
| Gtr III
| E E E Q   E E E   +E  E  E  E  E  E  E  E
|---1-3-5---1-3-5-|-(5)---------------17-18-||
|-----------------|----------------18-------||
|-----------------|-------14-15-17----------||
|-----------------|-------------------------||
|-----------------|-------------------------||
|-----------------|-------------------------||


 3rd Verse
  F                  Bb                F
  Gtr III            Gtrs I, V
                                             ~~~~
   W                 W                 Q     H.
|-20---------------|-----------------|-----/13------------|
|------------------|-----------------|--------------------|
|------------------|-----------------|--------------------|
|------------------|-----------------|--------------------|
|------------------|-----------------|--------------------|
|------------------|-----------------|--------------------|
|
|  E E E E E E E E   E E E E E E E E   E E   E  E E E E E
|--1---1-1-----1---|-1---1-1-----1---|-1-----1--1-----1---|
|--1---1-1-----1-1-|-3-3-3-3-3---3-3-|-1-----1--1-----1-1-|
|--2-2-2-2-2---2-2-|-3-3-3-3-3-3-3-3-|-2-2---2--2-2---2-2-|
|--3-3-3-3-3-3-3-3-|-3-3---3-3-3-3-3-|-3-3---3--3-3-3-3-3-|
|--3-3---3-3-3-3-3-|-1-1-----1-1---1-|-3-3------3-3-3-3-3-|
|--1-1-----1-1---1-|-----------------|-1-1--------1-1---1-|
|
| Gtr IV
|  W                 W                 W
|------------------|-----------------|--------------------|
|------------------|-----------------|--------------------|
|------------------|-3---------------|--------------------|
|--3---------------|-3---------------|--------------------|
|--3---------------|-1---------------|--------------------|
|--1---------------|-----------------|--------------------|


    E     E    E     E     E    Q.
|---------------------------------------------|
|-/15\---13--------/15\---13------------------|
|-------------14---------------14\------------|
|---------------------------------------------|
|---------------------------------------------|
|---------------------------------------------|
|
|   E     E    E     E     E    E    E   E
|---1----------1-----1---------------1--------|
|---1----------1-----1---------------1---1----|
|---2-----2----2-----2-----2---------2---2----|
|---3-----3----3-----3-----3----3----3---3----|
|---3-----3----------3-----3----3----3---3----|
|---1-----1----------------1----1--------1----|
|
|   S  S  S S  S S   S  S  S S  S  S S S S S
|---------------------------------------------|
|---------------------------------------------|
|------2--2----2-2------2--2----2--2---2-2----|
|---3-------3--------3-------3-------3-----3--|
|---3-------3--------3-------3-------3-----3--|
|---1-------1--------1-------1-------1-----1--|


  F                 Bb                F
                                            ~~~~
  W                 W                 Q     H.
|-----------------|-----------------|-----/17------------------|
|-----------------|-----------------|--------------------------|
|-----------------|-----------------|--------------------------|
|-----------------|-----------------|--------------------------|
|-----------------|-----------------|--------------------------|
|-----------------|-----------------|--------------------------|
|
| E E E E E E E E   E E E E E E E E   E E   E  E E E   E   E
|-1---1-1-----1---|-1---1-1-----1---|-1-----1--1-------1-------|
|-1---1-1-----1-1-|-3-3-3-3-3---3-3-|-1-----1--1-------1---1---|
|-2-2-2-2-2---2-2-|-3-3-3-3-3-3-3-3-|-2-2---2--2-2-----2---2---|
|-3-3-3-3-3-3-3-3-|-3-3---3-3-3-3-3-|-3-3---3--3-3-3---3---3---|
|-3-3---3-3-3-3-3-|-1-1-----1-1---1-|-3-3------3-3-3---3---3---|
|-1-1-----1-1---1-|-----------------|-1-1--------1-1-------1---|
|
| W                 W                 Q     E  Q   S S S S S S
|-----------------|-----------------|--------------------------|
|-----------------|-----------------|--------------------------|
|-----------------|-3---------------|--------------------------|
|-3---------------|-3---------------|-3-----3--3---3-----3---3-|
|-3---------------|-1---------------|-3-----3--3---3-----3---3-|
|-1---------------|-----------------|-1-----1--1---1-1-1-1-1-1-|


    E   E  E     E     E      E     E      E
|-/18\-17-17\---15----15\----13----13\----12\--||
|----------------------------------------------||
|----------------------------------------------||
|----------------------------------------------||
|----------------------------------------------||
|----------------------------------------------||
|
|   E   E  E     E     E      E     E      E
|---1------1-----1------------------1----------||
|---1------1-----1------------------1------1---||
|---2---2--2-----2-----2------------2------2---||
|---3---3--3-----3-----3------3-----3------3---||
|---3---3--------3-----3------3-----3------3---||
|---1---1--------------1------1------------1---||
|
|   E   E  S  S  S  S  S   S  S  S  S   S  E
|-------------------------------17-18--15-13---||
|----------------------------18----------------||
|----------------2-14-15--17-------------------||
|---3---3-----3--------------------------------||
|---3---3--3-----------------------------------||
|---1---1--------------------------------------||


 Out-Chorus
  C                   G
   Q    Q   H         W
|-------------------|-----------------|
|-13\---------------|-----------------|
|-------------------|-----------------|
|-------------------|-----------------|
|-------------------|-----------------|
|-------------------|-----------------|
|
|  E  E E E E E E E   E E E E E E E E
|--0----0-0-----0---|-3---3-3-----3---|
|--1----1-1-1---1-1-|-3---3-3-----3-3-|
|--0--0-0-0-0-0-0-0-|-0-0-0-0-0---0-0-|
|--2--2---2-2-2-2-2-|-0-0-0-0-0-0-0-0-|
|--3--3-----3-3---3-|-2-2---2-2-2-2-2-|
|-------------------|-3-3-----3-3---3-|
|
|  W                  W
|-------------------|-----------------|
|-------------------|-----------------|
|-------------------|-----------------|
|-------------------|-----------------|
|-------------------|-----------------|
|-------------------|-----------------|


  BbVI      Am  Gm   F
  W                  Q    e  e  e  e  e  e
|------------------|-----------------------|
|------------------|--------------15-17-18-|
|------------------|-----14-15-17-12-14-15-|
|------------------|-----12-13-15----------|
|------------------|-----------------------|
|------------------|-----------------------|
|                    Q    e  e  e  e  e  e
|
| E E E E E E E  E   E E  E  E  E  E  E  E
|-6-----5-----3--3-|-1----1--1--------1----|
|-6-6-6-5-5-5-3--3-|-1----1--1--------1--1-|
|-7-7-7-5-5-5-3--3-|-2-2--2--2--2-----2--2-|
|-8-8-8-7-7-7-5--5-|-3-3--3--3--3--3--3--3-|
|-8-8-8-7-7-7-5--5-|-3-3-----3--3--3--3--3-|
|-6-6---6-5---3----|-1-1--------1--1-----1-|
|
| W                  Q    E  E  E  E  E  E
|------------------|-----------------------|
|------------------|---------------------1-|
|------------------|------2--2--2-----2----|
|------------------|------3--3--3--3-------|
|------------------|------3--3--3----------|
|------------------|------1--1--1----------|


  C                  G                 BbVI  Am    Gm
   ~~
   W                 W                 W
|------------------|-----------------|-----------------|
|-20---------------|-----------------|-----------------|
|-17---------------|-----------------|-----------------|
|------------------|-----------------|-----------------|
|------------------|-----------------|-----------------|
|------------------|-----------------|-----------------|
|  W
|
|  E E E E E E E E   E E E E E E E E   E E E E E E E E
|--0---0-0-----0---|-3---3-3-----3---|-6-----5-----3-3-|
|--1---1-1-1---1-1-|-3---3-3-----3-3-|-6-6-6-5-5-5-3-3-|
|--0-0-0-0-0-0-0-0-|-0-0-0-0-0---0-0-|-7-7-7-5-5-5-3-3-|
|--2-2---2-2-2-2-2-|-0-0-0-0-0-0-0-0-|-8-8-8-7-7-7-5-5-|
|--3-3-----3-3---3-|-2-2---2-2-2-2-2-|-8-8-8-7-7-7-5-5-|
|------------------|-3-3-----3-3---3-|-6-6---6-5---3---|
|
|  E E Q   H         W                 W
|------------------|-----------------|-----------------|
|------------------|-----------------|-----------------|
|--2---------------|-----------------|-----------------|
|----3-------------|-----------------|-----------------|
|------------------|-----------------|-----------------|
|------------------|-----------------|-----------------|


  F                         BbVI
   W                         H           Q      Q
|-------------------------|-------------------/15----|
|-------------------------|--------------------------|
|-------------------------|--------------------------|
|-------------------------|--------------------------|
|-------------------------|--------------------------|
|-------------------------|--------------------------|
|
|  E  E  E  E  E  E  E  E    E  E  E  E  E  E   E  E
|--1-----1--1--------1----|--6-----6--6---------6----|
|--1-----1--1--------1--1-|--6-----6--6---------6--6-|
|--2--2--2--2--2-----2--2-|--7--7--7--7--7------7--7-|
|--3--3--3--3--3--3--3--3-|--8--8--8--8--8--8---8--8-|
|--3--3-----3--3--3--3--3-|--8--8-----8--8--8---8--8-|
|--1--1--------1--1-----1-|--6--6--------6--6------6-|
|
| Gtr III
|  E  E  E  E  E  E  E  E    E  E  E  E  E  E   E  E
|----13-12-13----13-12-13-|----13-12-13----13--12-13-|
|-13----------13----------|-13----------13-----------|
|-------------------------|--------------------------|
|-------------------------|--------------------------|
|-------------------------|--------------------------|
|-------------------------|--------------------------|


                                     H.=H
  F                            BbVI     Am       Gm
                              9/8                            4/4
             ~~~                ~~
   Q.        Q.        Q        W                       +E      W
|-13--------17\-------15\----|-13----------------------(13)-|--------*|
|----------------------------|------------------------------|--------*|
|----------------------------|------------------------------|--------*|
|----------------------------|------------------------------|--------*|
|----------------------------|------------------------------|--------*|
|----------------------------|------------------------------|--------*|
|
|  E   E  E  E   E  E  E   E    E  E  E  E  E  E  E  E   E      W
|--1------1--1---------1-----|--6--------5--------3---------|-^-1----*|
|--1------1--1---------1---1-|--6--6--6--5--5--5--3--3---3--|-^-1----*|
|--2---2--2--2---2-----2---2-|--7--7--7--5--5--5--3--3---3--|-^-2----*|
|--3---3--3--3---3--3--3---3-|--8--8--8--7--7--7--5--5---5--|-^-3----*|
|--3---3-----3---3--3--3---3-|--8--8--8--7--7--7--5--5---5--|-^-3----*|
|--1---1---------1--1------1-|--6--6-----6--5-----3---------|-^-1----*|
|
|  E   E  E  E   E  E  E   E    E  E  E  E  E  E  E  E   E      W
|-----13-12-13-----13-12--13-|----13------------------------|--------*|
|-13------------13-----------|-13----13-15-13----13-11------|-^13----*|
|----------------------------|----------------14--------12--|-^14----*|
|----------------------------|------------------------------|-^15----*|
|----------------------------|------------------------------|-^15----*|
|----------------------------|------------------------------|-^13----*|


Duration Legend
---------------
W - whole; H - half; Q - quarter; E - 8th; S - 16th; T - 32nd; X - 64th; a - acciaccatura
+ - note tied to previous; . - note dotted; .. - note double dotted
Uncapitalized letters represent notes that are staccato (1/2 duration)
Irregular groupings are notated above the duration line
Duration letters will always appear directly above the note/fret number it represents the
duration for.  Duration letters with no fret number below them represent rests.  Multi-
bar rests are notated in the form Wxn, where n is the number of bars to rest for.  Low
melody durations appear below the staff

Tablature Legend
----------------
 h   - hammer-on
 p   - pull-off
 b   - bend
 pb  - pre-bend
 r   - bend release (if no number after the r, then release immediately)
 /\  - slide into or out of (from/to "nowhere")
 s   - legato slide
 S   - shift slide
  - natural harmonic
[n]  - artificial harmonic
n(n) - tapped harmonic
 ~   - vibrato
 tr  - trill
 T   - tap
 TP  - trem. picking
 PM  - palm muting
\n/  - tremolo bar dip; n = amount to dip
 \n  - tremolo bar down
 n/  - tremolo bar up
/n\  - tremolo bar inverted dip
 =   - hold bend; also acts as connecting device for hammers/pulls
 <>  - volume swell (louder/softer)
 x   - on rhythm slash represents muted slash
 o   - on rhythm slash represents single note slash

Misc Legend
-----------
 |  - bar
||  - double bar
||o - repeat start
o|| - repeat end
*|  - double bar (ending)
 :  - bar (freetime)
 $  - Segno
 &  - Coda
Tempo markers -  = BPM(8/16=s8/s16), where s8 = swing 8ths, s16 = swing 16ths


***************************************************************************************
***************************************************************************************





Comments


Popular Badfinger tabs & chords
No Matter What Bass Tabs
Baby Blue Chords
Walk Out In The Rain Chords
Without You Chords
Baby Blue 1 Tabs
Midnight Caller Tabs
No Matter What 2 Tabs
Without You Tabs
Baby Blue Ukulele
The Name Of The Game Ukulele


Song lyrics



↑ Back to top | Tablatures and chords are parodies/interpretations of the original songs. You may use it for private study, scholarship, research or language learning purposes only
© 2014 AZChords.com Contact us | Privacy policy | DMCA | Add/correct tabs | Request tabs | Top 50 tabs