» » »

Badfinger, No Matter What Bass tabs (ver.1)

Artists:  A B C D E F G H I J K L M N O P Q R S T U V W X Y Z # 

No Matter What Bass tabs (ver.1)

Badfinger Tabs
Rating:
1/5 (1 vote)
No Matter What lessons Tabs too difficult? Try these video lessons and learn fast
                this is one of my favorite songs,very easy on bass.im positive this is accurate.


        Verse
G-----------/--------------------------------------------------|
D-----------/--------------------------------------------------|
A-----------/-------3-3-3------3-3-3-----2-2-2-----2-2-2-------|
E-----/3----/-----3----------3---------4---------4-------------|


        Verse(cont)
G-------------------------/-------------------------------------|
D-------------------------/-------------------------------------|
A-------------------------/-------------------------------------|
E-----9-7---7-5---3-5-3---/-------------------------------------|

       Chorus
G-----------------------------------------------------------------|
D-----------------------------------------------------------------|
A---------------3-3-3-3-3-------------5-5-5-5-5---3-3-3-3-3-------|
E----3-3-3-3-3-------------5-5-5-5-5------------------------------|

       Chorus(cont)
G-----------------------------------------------------------------|
D-----------------------------------------------------------------|
A-----------------------------------------------------------------|
E----3-3-3-3-3--5-5-5-5-5-----------------------------------------|

       Bass Over Solo
G-----------------------------------------------------------------|
D-----------------------------------------------------------------|
A---------3-3-3-------3-3-3------2-2-2-------2-2-2----------------|
E-----3-3---------3-3--------4-4---------4-4----------------------|
            
Submit corrections

comments powered by Disqus
↑ Back to top | Badfinger Bass for No Matter What. Lyrics for acoustic guitar and electric guitar. Tablatures and chords are parodies/interpretations of the original songs. You may use it for private study, scholarship, research or language learning purposes only