» » »

Bad Company, Seagull Tabs (ver.1)

Artists:  A B C D E F G H I J K L M N O P Q R S T U V W X Y Z # 

Seagull Tabs (ver.1)

Bad Company Tabs
 Rating:
4/5 (4 votes)
Seagull lessons Tabs too difficult? Try these video lessons and learn fast
1
                Seagull
Bad Company
Standard Tuning - Acoustic Guitar
Posted by Jeff R

Play Through Verses:
(listen to the song for timing)
  D	        D             C             G
E|------2-2-2--|------2-2-2--|------0-0-0--|------0-0-0--|
B|------3-3-3--|------3-3-3--|------3-3-3--|------3-3-3--|
G|--0^2-2-2-2--|--0^2-2-2-2--|------0-0-0--|------0-0-0--|
D|--0-0--------|--0-0--------|------2-2-2--|------0-0-0--|
A|-------------|-------------|--0^3--------|--0^2--------|
E|-------------|-------------|-------------|-------------|

Play Through Chorus:
(just play the chords)
D: x00232
C: x32030
G: x20030


Mmmm. Mmmm. Mmmm. 
D           C   G	   D
Seagull you fly across the horizon 
D        C     G       D    (add some D's)
into the misty morning sun. 
Nobody asks you where you are going 
and nobody knows where you’re from. 

There is a man asking the question 
is this really the end of the world 
Seagull you must have known for a long time 
the shape of things to come 


CHORUS: 
        D                C
Now you fly, through the sky 
C     G      D
never asking why 
           D        C
And you’ll fly, all around 
     C        G          D(start to play verse)
‘til somebody shoots you down 

Da da da da da da da da da da 

VERSE: 

Seagull you fly across the horizon 
into the misty morning sun 
Nobody asks you where you are going 
and nobody knows where you’ll fall

CHORUS: 

Now you fly, through the sky
never asking why. 
And you fly all around 
‘til somebody no, no shoots you down 

Now you fly, through the sky
never asking why. 
And you fly all around
‘til somebody no, no shoots you down. 

Seagull, fly away. Fly away now. 
Fly away tomorrow. Fly away my sorrow. Mmmm. Mmmm. Mmmm. 


For the Ending Above:
(listen to the song for timing)

E|--2-2--|--5-5--|--7-7--|--9--9--|--12-12--|
B|--3-3--|--6-6--|--8-8--|--10-10-|--13-13--|
D|--2-2--|--5-5--|--7-7--|--9--9--|--12-12--|
G|--0-0--|-------|-------|--------|---------|
A|-------|-------|-------|--------|---------|
E|-------|-------|-------|--------|---------|
            
Submit corrections

comments powered by Disqus
↑ Back to top | Bad Company Tabs for Seagull. Lyrics for acoustic guitar and electric guitar. 1 Tablatures and chords are parodies/interpretations of the original songs. You may use it for private study, scholarship, research or language learning purposes only