>
 >
Rock And Roll Fantasy

Rock And Roll Fantasy Chords

Bad Company - Rock And Roll Fantasy chords, tabs, tablatures, lyrics

Guitar lessons | Add/correct | Request | Top 50 tabs Artists:  A B C D E F G H I J K L M N O P Q R S T U V W X Y Z 0-9

Rock And Roll Fantasy Chords – Bad Company

CD, Sheet music, Poster

Do you like Rock And Roll Fantasy? Share with your friends now
ChordsTabs
Bad Company
1979
Written by Paul Rodgers

   Em
E-------------------------------------------------
B-------------------------------------------------
G-------------------------------------------------
D-------------------------------------------------
A--5/7--7--5------------------5--7--7-------------
E--------------7---5--7--5--3----------7--5--3--0-


E--------2-(4)-------------2--4--2--0-------------
B-------------------------------------------------
G-------------------------------------------------
D-------------------------------------------------
A-------------------------------------------------
E--0--0--0--0--0--0--0--0--0--0--0--0--0--0--0--0-


 Em                   C          D
Here come the jesters one two three

Em                C       D
It's all part of my fantasy

Em                      C                D
I love the music and I love to see the crowd

 Em                                       
Dancin' in the aisles and singin' out loud


A--5--7---5--7---5--7--5-------------------------
E--------------------------0---------------------                    Yeah

 Em                   C      D
Here come the dancers one by one

 Em                             C      D
Your mama's callin' but you're havin' fun

Em                            C            D
You find you're dancin' on a number nine cloud

 Em
Put your hands together now and sing it out loud

Riff 1
A------------5----5----7----5----7----------------
E--5----7-----------------------------------------


Chorus:

  C5        A5  G5     D5            A5
E-3----3----0---3---3--2---0---------2--0-0-------
B-------------------------------3-----------------
  It's all part of my rock and roll fantasy

  C5        A5  G5     D5             A
E-3----3----0---3---5--2---0----------2-0---------
B-------------------------------4-----------------
  It's all part of my rock and roll dream

   Em (w/low E bass)
A--5/7--5/7--5/7----------------------------------
E-------------------------------------------------

 Em                  C       D
Put up the spotlight one and all

Em                       C            D
And let the feelin' get down to your soul

Em                       C            D
The music's so loud you can hear the sound

 Em                                        Riff 1
Reachin' for the sky and churnin' up the ground

Chorus x 2 + Chorus and end on A





Comments


Popular Bad Company tabs & chords
Shooting Star 2 Bass Tabs
Smokin' 45 Bass Tabs
Bad Company 1 Tabs
Bad Company 2 Tabs
Bad Company 3 Tabs
Every Thing I Need Tabs
Love Me Somebody 1 Tabs
Ready For Love 1 Tabs
Rock 'n' Roll Fantasy Tabs
Shooting Star Tabs


Song lyrics



↑ Back to top | Tablatures and chords are parodies/interpretations of the original songs. You may use it for private study, scholarship, research or language learning purposes only
© 2014 AZChords.com Contact us | Privacy policy | DMCA | Add/correct tabs | Request tabs | Top 50 tabs