» » »

Love Me Somebody Tabs (ver.2)

Artists:  A B C D E F G H I J K L M N O P Q R S T U V W X Y Z # 

Love Me Somebody Tabs (ver.2)

Bad Company
Rating:
0/5 (0 votes)

Hard to play? Try these video lessons and learn fast.
                This song is played slowly about (60)tempo. I believe the timing
is about 6/8. In believe on the album its in the key of C. Great
song for quiet moments with your lady.You can play it how ever
you want. Add strums if they fit. Its a great song for changing the
words for the mood at the time. Or add persons name your singing it
around or for.
I transcribed it for easy first position guitar playing. You
could use the G bar chord and it would probably sound better.
and send the lead later. W/ chords and piano mix.

  (intro.)                                  (end intro.)
   C     G      F            C     F      G
E|---0-0---3-3-|--1-1-1-1-1-|--0-0---1-1-|---3-3---3-3--|
B|---1-1---0-0----1-1-1-1-1----1-1---1-1-----0-0---0-0---|
G|---0-0---0-0----2-2-2-2-2----0-0---2-2-----0-0---0-0---|
D|---2-2---0-0--3-----3-3-3----2-2-3---------0-0---0-0---|
A|-3-------2-2---------------3---------------2-2---2-2---|
E|-------3-----|-------------|-----------|-3-----3------|

       Love me somebody           Somebody L M  T M F what  I'm
 C            G             F            C             F     G
---0-0---0-0-|---3-3---3-3-|--1-1---1-1-|---0-0---0-0-|--1-1---3-3--|
---1-1---1-1-----0-0---0-0----1-1---1-1-----1-1---1-1----1-1---0-0---|
---0-0---0-0-----0-0---0-0----2-2---2-2-----0-0---0-0----2-2---0-0---|
---2-2---2-2-----0-0---0-0--3-----3---------2-2---2-2--3-------0-0---|
-3-----3---------2-2---2-2----------------3-----3--------------2-2---|
-------------|-3-----3-----|-------------|------------|------3------|

worth  But O Love M  But O Love M            Well T   was a   crazy
 C     F      C      G      C                          F      G
---0-0---1-1-|---0-0---3-3-|---0-0---0-0-|--0-0---0-0-|---1-1---3-3--|
---1-1---1-1-----1-1---0-0-----1-1---1-1----1-1---1-1-----1-1---0-0---|
---0-0---2-2-----0-0---0-0-----0-0---0-0----0-0---0-0-----2-2---0-0---|
---2-2-3---------2-2---0-0-----2-2---2-2----2-2---2-2---3-------0-0---|
-3-------------3-------2-2---3-----3------3-----3---------------2-2---|
-------------|-------3-----|-------------|------------|-------3------|

 fool     followed Y home F school     Hoping you W S Hello B Y didn't
 C            F     G      C             F     G      C
---0-0---0-0-|--1-1---3-3-|---0-0---0-0-|--1-1---3-3-|---0-0---0-0--|
---1-1---1-1----1-1---0-0-----1-1---1-1----1-1---0-0-----1-1---1-1---|
---0-0---0-0----2-2---0-0-----0-0---0-0----2-2---0-0-----0-0---0-0---|
---2-2---2-2--3-------0-0-----2-2---2-2--3-------0-0-----2-2---2-2---|
-3-----3--------------2-2---3-----3--------------2-2---3-----3-------|
-------------|------3-----|-------------|------3-----|--------------|

 know      A Y W breakn my heart                             Love me
 F                        C             G             C
---1-1---1-1-|---1-1---1-|---0-0---0-0-|---3-3---3-3-|---0-0---0-0--|
---1-1---1-1-----1-1---1-----1-1---1-1-----0-0---0-0-----1-1---1-1---|
-2-2-2-2-2-2---2-2-2-2-2-----0-0---0-0-----0-0---0-0-----0-0---0-0---|
-3-3-3-3-3-3---3-3-3-3-2---2-2-2-2-2-2-----0-0---0-0---2-2-2---2-2---|
---------------------------3-----3---------2-2---2-2---3-----3-------|
-------------|-----------|-------------|-3-----3-----|--------------|

 somebody            S-body L me    T me F What  I'm   worth   But ony
 G             F            C             F      G      C      F
---3-3---3-3--|--1-1---1-1-|---0-0---0-0-|---1-1---3-3-|---0-0---1-1--|
---0-0---0-0-----1-1---1-1-----1-1---1-1-----1-1---0-0-----1-1---1-1---|
---0-0---0-0-----2-2---2-2-----0-0---0-0-----2-2---0-0-----0-0---2-2---|
---0-0---0-0---3-----3---------2-2---2-2---3-------0-0-----2-2-3-------|
---2-2---2-2-----------------3-----3---------------2-2---3-------------|
-3-----3-----|-------------|-------------|-------3-----|--------------|

 Love M / B O Love me                W I was the Crazy  fool  Who foll-
 C     G      C                           F      G      C
---0-0---3-3-|---0-0---0-0-|---0-0---0-0-|---1-1---3-3-|---0-0---0-0--|
---1-1---0-0-----1-1---1-1-----1-1---1-1-----1-1---0-0-----1-1---1-1---|
---0-0---0-0-----0-0---0-0-----0-0---0-0-----2-2---0-0-----0-0---0-0---|
---2-2---0-0-----2-2---2-2-----2-2---2-2---3-------0-0-----2-2---2-2---|
-3-------2-2---3-----3-------3-----3---------------2-2---3-----3-------|
-------3-----|-------------|-------------|-------3-----|--------------|

owed you H F school     I W hoping T you W know     But you had to go
 F     G      C             F      G       C            F
---1-1---3-3-|---0-0---0-0-|---1-1---3-3-|---0-0---0-0-|---1-1--1-1--|
---1-1---0-0-----1-1---1-1-----1-1---0-0-----1-1---1-1-----1-1--1-1---|
---2-2---0-0-----0-0---0-0-----2-2---0-0-----0-0---0-0-----2-2--2-1---|
-3-------0-0-----2-2---2-2---3-------0-0-----2-2---2-2---3-----3------|
---------2-2---3-----3---------------2-2---3-----3--------------------|
-------3-----|-------------|-------3-----|-------------|-------------|

    Breakn' M heart           Yeah  (Solo start)
 F            C             G             C             G
---1-1---1-1-|---0-0---0-0-|---3-3---3-3-|---0-0---0-0-|---3-3---3-3--|
---1-1---1-1-----1-1---1-1-----0-0---0-0-----1-1---1-1-----0-0---0-0---|
---2-2---2-2-----0-0---0-0-----0-0---0-0-----0-0---0-0-----0-0---0-0---|
-3-----3---------2-2---2-2-----0-0---0-0-----2-2---2-2-----0-0---0-0---|
---------------3-----3---------2-2---2-2---3-----3---------2-2---2-2---|
-------------|-------------|-3-----3-----|-------------|-3-----3------|


 F            C             F      G      C      F      C      G
---1-1---1-1-|---0-0---0-0-|---1-1---3-3-|---0-0---1-1-|---0-0---3-3--|
---1-1---1-1-----1-1---1-1-----1-1---0-0-----1-1---1-1-----1-1---0-0---|
---2-2---2-2-----0-0---0-0-----2-2---0-0-----0-0---2-2-----0-0---0-0---|
-3-----3---------2-2---2-2---3-------0-0-----2-2-3---------2-2---0-0---|
---------------3-----3---------------2-2---3-------------3-------2-2---|
-------------|-------------|-------3-----|-------------|-------3------|

                 (end solo)        Love M S-body  Yeah          Somebody
 C            G             C             G             F
---0-0---0-0-|---3-3---3-3-|-0-0-0-0-0-0-|---3-3---3-3-|---1-1---1-1-|---|
---1-1---1-1-----0-0---0-0---1-1-1-1-1-1-----0-0---0-0-----1-1---1-1-----|
----0-0---0-0-----0-0---0-0---0-0-0-0-0-0-----0-0---0-0-----2-2---2-2----|
---2-2---2-2-----0-0---0-0---2-2-2-2-2-2-----0-0---0-0---3-----3---------|
-3-----3---------2-2---2-2---3-3-3-3-3-3-----2-2---2-2-------------------|
-------------|-3-----3-----|-------------|-3-----3-----|-------------|---|

L M    T me F What   I'm Worth           But O  Love M  But O  L me  But O
 C            F      G      C            F       C       G     C     F
---0-0---0-0-|---1-1---3-3-|-----0+-|-------1-1-|---0-0---3-3-|--0-0---1-1---|
---1-1---1-1-----1-1---0-0------1------$----1-1-----1-1---0-0----1-1---1-1---|
---0-0---0-0-----2-2---0-0-----0-------$----2-2-----0-0---0-0----0-0---2-2---|
---2-2---2-2---3-------0-0----2--------$--3---------2-2---0-0----2-2-3-------|
-3-----3---------------2-2---3--------------------3-------2-2--3-------------|
-------------|-------3-----|--------|-----------|-------3-----|--------------|

L me      B O Love Me  B O Love M  B O Love Meeeeeeee
C      G      C      F      C      G     C      F      C      G      C
---0-0---3-3-|---0-0---1-1-|--0-0---3-3-|---0-0---1-1-|---0-0---3-3-|-----0--|
---1-1---0-0-----1-1---1-1----1-1---0-0-----1-1---1-1-----1-1---0-0------1---|
---0-0---0-0-----0-0---2-2----0-0---0-0-----0-0---2-2-----0-0---0-0-----0----|
---2-2---0-0-----2-2-3--------2-2---0-0-----2-2-3---------2-2---0-0----2-----|
-3-------2-2---3------------3-------2-2---3-------------3-------2-2---3------|
-------3-----|-------------|------3-----|-------------|-------3-----|--------|


              --|--  =  the end of a measure
                  +  =  let ring
                  $  =  rest


Love me somebody ,Somebody love me ,Take me for what I'm worth,
But only love me ,But only love me .

Well there was a crazy fool ,Followed you home from school ,
Hoping you would say hello , But you didn't know ,
And you were breaking my heart .

Well I was the crazy fool ,Who followed you home from school,
I was hoping you would know , But you had to go ,
Breaking my heart.
            
Hard to play? Try these video lessons and learn fast. | Correct




comments powered by Disqus
↑ Back to top | Tablatures and chords are parodies/interpretations of the original songs. You may use it for private study, scholarship, research or language learning purposes only