>
 >
If You Needed Somebody

If You Needed Somebody Guitar Tabs

Bad Company - If You Needed Somebody chords, tabs, tablatures, lyrics

Guitar lessons | Add/correct | Request | Top 50 tabs Artists:  A B C D E F G H I J K L M N O P Q R S T U V W X Y Z 0-9

If You Needed Somebody Guitar Tabs – Bad Company

CD, Sheet music, Poster

Do you like If You Needed Somebody? Share with your friends now
Bass TabsChordsTabs
Intro
|-3-----3-----3-|-3-----3-----3-|-3-----3-----3-|-3-----3-----3--|
|---3-----3-----|---3-----3-----|---3-----3-----|---3-----3------|
|-----0-----0---|-----0-----0---|-----0-----0---|-----0-----0----|
|---------------|-------2-------|---------------|-------2--------|
|-------2-------|-3-------------|-------2-------|-3--------------|
|-3-------------|---------------|-3-------------|----------------| 

Verse
||--3-----3-----3--|-3-----3-----3--|-3-----3-----3--|-3-----3-----3--||
||o---3-----3------|---3-----3------|---3-----3------|---3-----3-----o||
||------0-----0----|-----0-----0----|-----0-----0----|-----0-----0----||
||-----------------|-------2--------|----------------|-------2--------||
||o-------2--------|-3--------------|-------2--------|-3-------------o||
||--3--------------|----------------|-3--------------|----------------|| 

Bridge
|-3-----3-----3-|-3-----3-----3-|-3-----3-----3-|-3-----3-----3-|
|---3-----3-----|---3-----3-----|---3-----3-----|---3-----3-----|
|-----0-----0---|-----0-----0---|-----0-----0---|-----0-----0---|
|---------------|---------------|---------------|---------------|
|-3-----3-------|-2-----2-------|-0-----0-------|---------------|
|---------------|---------------|---------------|-3-----3-------| 

|-3-----3-----3-|-3-----3-----3-|-3-----3-----3-|-3-----3-3-3-3-||
|---3-----3-----|---3-----3-----|---3-----3-----|---3-----3-3-3-||
|-----0-----0---|-----0-----0---|-----0-----0---|-----0---------||
|---------------|---------------|---------------|---------------||
|-3-----3-------|-2-----2-------|-0-----0-------|---------------||
|---------------|---------------|---------------|-3-----3-3-3-3-||

Chorus
||--3--3-3-3-3-|-2--2-2-2-2-|------------|-------2-2-2-||
||o------------|-3--3-3-3-3-|-1--1-1-1-1-|-1-1-1-3-3-3o||
||-------------|-2--2-2-2-2-|-2--2-2-2-2-|-------2-2-2-||
||-------------|------------|-2--2-2-2-2-|-2-2-2-------||
||o-2--2-2-2-2-|------------|------------|-3-3-3------o||
||--3--3-3-3-3-|------------|------------|-------------||

(repeat chorus to end...)
|-3--3-3-3-3-|-2--2-2-2-2-|------------|-------2-2-2-|
|------------|-3--3-3-3-3-|-1--1-1-1-1-|-1-1-1-3-3-3-|
|------------|-2--2-2-2-2-|-2--2-2-2-2-|-------2-2-2-|
|------------|------------|-2--2-2-2-2-|-2-2-2-------|
|-2--2-2-2-2-|------------|------------|-3-3-3-------|
|-3--3-3-3-3-|------------|------------|-------------|

|-3--------*|
|-0--------*|
|-0--------*|
|-0--------*|
|-2--------*|
|-3--------*|


Should have told you by now, but I can't find the words, oh no
If I could show you somehow, but I don't have the nerve, oh yeah

You don't see me looking at you, how can love be so blind
Somehow you don't notice me, sooner or later there will come a time, baby

Chorus:
If you need somebody, the way that I need you
If you wanted somebody, the way that I want you
Oh yeah, the way that I want you

If I could hold you tonight, it would last me forever
But the time's never right, when will we be together, oh no

If I could make you understand, what you're doing to me
Maybe there will come a time, when sooner or later I will make you see, baby

(chorus)

Ooh, if I could tell you now, the way you make me feel
Ooh, if I could show you somehow, don't you know my lovin' is oh so real

(Solo)

(chorus)

(If you need somebody) I need you, I want you, I gotta tell you
The way that I need you
And if you wanted somebody, the way that I want you...





Comments


Popular Bad Company tabs & chords
If You Needed Somebody Bass Tabs
Bad Company 2 Chords
Love Me Somebody Chords
Seagull 1 Chords
Burnin' Sky Tabs
Cant Get Enough Tabs
If You Need Somebody Tabs
Ready For Love Tabs
Rock Steady 1 Tabs
Run With The Pack Tabs


Song lyrics



↑ Back to top | Tablatures and chords are parodies/interpretations of the original songs. You may use it for private study, scholarship, research or language learning purposes only
© 2014 AZChords.com Contact us | Privacy policy | DMCA | Add/correct tabs | Request tabs | Top 50 tabs