>
 >
If You Needed Somebody

If You Needed Somebody Bass Tabs

Bad Company - If You Needed Somebody chords, tabs, tablatures, lyrics

Guitar lessons | Add/correct | Request | Top 50 tabs Artists:  A B C D E F G H I J K L M N O P Q R S T U V W X Y Z 0-9

If You Needed Somebody Bass Tabs – Bad Company

CD, Sheet music, Poster

Do you like If You Needed Somebody? Share with your friends now
Bass TabsChordsTabs
Bad Company - If You Needed Somebody
                        From the album Holy Water




       Q  e+(h)    Q  e+(h)    Q  e+(h)    Q  e+(h)    Q  e+(h)    Q    
G---|-----------|-----------|-----------|-----------|-----------|-------
D---|-----------|-----0+(0)-|-----------|-----0+(0)-|-----------|-------
A---|-----3+(3)-|--0--------|-----3+(3)-|--0--------|-----3+(3)-|--0----
E---|--3--------|-----------|--3--------|-----------|--3--------|-------
B---|-----------|-----------|-----------|-----------|-----------|-------
                                                                        

    Q  q     Q  e+(h)    Q  Q  q     Q  e+(h)    Q  Q  q     Q  e+(h)   
G---------|-----------|-----------|-----------|-----------|-------------
D---0--0--|-----------|-----0--0--|-----------|-----0--0--|-------------
A---------|-----3+(3)-|--0--------|-----3+(3)-|--0--------|-----3+(3)---
E---------|--3--------|-----------|--3--------|-----------|--3----------
B---------|-----------|-----------|-----------|-----------|-------------
                                                                        

       Q  h  s  s     Q  e  q  q     Q  e  q  e  e     Q  e  q  q       
G---|--------------|--------------|-----------------|--------------|----
D---|-----0--------|--------------|-----------------|--------------|----
A---|--0-----0--2--|--3--3--3--3--|--2--2--2--2--2--|--0--0--0--0--|----
E---|--------------|--------------|-----------------|--------------|----
B---|--------------|--------------|-----------------|--------------|----
                                                                        

    Q  e  Q  s  s     Q  e  q  q     Q  e  Q  s  s     Q  e  q  q       
G------------------|--------------|-----------------|--------------|----
D------------------|--------------|-----------------|--------------|----
A------------0--2--|--3--3--3--3--|--2--2--2--0--2--|--3--3--3--3--|----
E---3--3--3--------|--------------|-----------------|--------------|----
B------------------|--------------|-----------------|--------------|----
                                                                        

    e  e  e  e  q  e  e     q  q  e  e  e  e   +(q) e  e  e  e  e  e    
G------------------------|--------------------|-------------------------
D------------------------|--------------------|-------------------------
A---5--------------------|--------------------|-----5--5----------------
E---------------------0--|--3--3--3--3--5-----|--------------0--3--0----
B------3--3--3--3--3-----|-----------------3--|+(3)-------3-------------
                                                                        

       q  q  e  e  e  e   +(e) e  e  e  e  e  e  e     q  q  e  e  e    
G---|--------------r-----|--------------------------|-------------------
D---|--------------e-----|--------------------------|-------------------
A---|--0--0--0--2--s--3--|+(3)-3--3-----5-----------|-------------------
E---|--------------t-----|-----------3--------0--2--|--3--3--3--3--5----
B---|--------------------|-----------------5--------|-------------------
                                                                        

    e   +(q) e  e  e  e  e  e     q  q  e  e  e  e   +(e) e  e  e  e    
G------|-----------------------|--------------r-----|-------------------
D------|-----------------------|--------------e-----|-------------------
A------|-----5--5--------------|--0--0--0--2--s--3--|+(3)-3--3-----5----
E------|--------------0--3-----|--------------t-----|-----------3-------
B---3--|+(3)-------3--------3--|--------------------|-------------------
                                                                        

    e  e  s  s     Q  e+(h)    Q  e+(h)    Q  e+(h)    Q  e+(h)    Q    
G---------------|-----------|-----------|-----------|-----------|-------
D---------------|-----------|-----0+(0)-|-----------|-----0+(0)-|-------
A---5-----------|-----3+(3)-|--0--------|-----3+(3)-|--0--------|-------
E---------0--2--|--3--------|-----------|--3--------|-----------|--3----
B------5--------|-----------|-----------|-----------|-----------|-------
                                                                        

    e+(h)    Q  Q  q     Q  e+(h)    Q  Q  q     Q  e+(h)    Q  Q  q    
G---------|-----------|-----------|-----------|-----------|-------------
D---------|-----0--0--|-----------|-----0--0--|-----------|-----0--0----
A---3+(3)-|--0--------|-----3+(3)-|--0--------|-----3+(3)-|--0----------
E---------|-----------|--3--------|-----------|--3--------|-------------
B---------|-----------|-----------|-----------|-----------|-------------
                                                                        

       Q  e+(h)    Q  h  s  s     Q  e  q  q     Q  e  q  e  e     Q    
G---|-----------|--------------|--------------|-----------------|-------
D---|-----------|-----0--------|--------------|-----------------|-------
A---|-----3+(3)-|--0-----0--2--|--3--3--3--3--|--2--2--2--2--2--|--0----
E---|--3--------|--------------|--------------|-----------------|-------
B---|-----------|--------------|--------------|-----------------|-------
                                                                        

    e  q  q     Q  e  Q  s  s     Q  e  q  q     Q  e  Q  s  s     Q    
G------------|-----------------|--------------|-----------------|-------
D------------|-----------------|--------------|-----------------|-------
A---0--0--0--|-----------0--2--|--3--3--3--3--|--2--2--2--0--2--|--3----
E------------|--3--3--3--------|--------------|-----------------|-------
B------------|-----------------|--------------|-----------------|-------
                                                                        

    e  q  q     e  e  e  e  q  e  e     q  q  e  e  e  e   +(q) e  e    
G------------|-----------------------|--------------------|-------------
D------------|-----------------------|--------------------|-------------
A---3--3--3--|--5--------------------|--------------------|-----5--5----
E------------|--------------------0--|--3--3--3--3--5-----|-------------
B------------|-----3--3--3--3--3-----|-----------------3--|+(3)---------
                                                                        

    e  e  e  e     q  q  e  e  e  e   +(e) e  e  e  e  e  e  e     q    
G---------------|--------------r-----|--------------------------|-------
D---------------|--------------e-----|--------------------------|-------
A---------------|--0--0--0--2--s--3--|+(3)-3--3-----5-----------|-------
E------0--3--0--|--------------t-----|-----------3--------0--2--|--3----
B---3-----------|--------------------|-----------------5--------|-------
                                                                        

    q  e  e  e  e   +(q) e  e  e  e  e  e     q  q  e  e  e  e   +(q)   
G------------------|-----------------------|--------------r-----|-------
D------------------|-----------------------|--------------e-----|-------
A------------------|-----5--5--------------|--0--0--0--2--s--3--|+(3)---
E---3--3--3--5-----|--------------0--3-----|--------------t-----|-------
B---------------3--|+(3)-------3--------3--|--------------------|-------
                                                                        

    q  q  q     q  q  e  q  e     q  q  e  q  e     q  q  e  q  e       
G------------|-----------------|-----------------|-----------------|----
D------------|-----------------|-----------------|-----------------|----
A---3--5--0--|-----------------|-----------------|-----------------|----
E------------|--1--1--1--1-----|--3--3--3--3--3--|--1--1--1--1-----|----
B------------|--------------3--|-----------------|--------------3--|----
                                                                        

    q  q  e  e  s  s  e     q  q  e  q  e     q  q  e  q  e     q  q    
G------------------------|-----------------|-----------------|----------
D---------------0--2--0--|-----------------|-----------------|----------
A------------------------|-----------------|-----------------|----------
E---3--3--3--3-----------|--1--1--1--1--1--|--0--0--0--0--0--|----------
B------------------------|-----------------|-----------------|--3--3----
                                                                        

    e  q  e     q  q  e  e  e  e     q  q  e  e  e  e   +(q) e  e  e    
G------------|--------------------|--------------------|----------------
D------------|--------------------|--------------------|----------------
A------------|--------------------|--------------------|-----5--5-------
E------------|-----------------0--|--3--3--3--3--5-----|----------------
B---3--3--3--|--1--1--1--1--3-----|-----------------3--|+(3)-------3----
                                                                        

    e  e  e     q  q  e  e  e  e   +(e) q  e  e  e  e  e     q  q  e    
G------------|--------------r-----|-----------------------|-------------
D------------|--------------e-----|-----------------------|-------------
A------------|--0--0--0--2--s--3--|+(3)-3-----5-----------|-------------
E---0--3--0--|--------------t-----|--------3--------0--2--|--3--3--3----
B------------|--------------------|--------------3--------|-------------
                                                                        

    e  e  e   +(q) e  e  e  e  e  e     q  q  e  e  e  e   +(e) q  e    
G------------|-----------------------|--------------r-----|-------------
D------------|-----------------------|--------------e-----|-------------
A------------|-----5--5--------------|--0--0--0--2--s--3--|+(3)-3-------
E---3--5-----|--------------0--3-----|--------------t-----|--------3----
B---------3--|+(3)-------3--------3--|--------------------|-------------
                                                                        

    e  e  e  s  s     Q  e+(h)    Q  e+(h)    Q  e+(h)    Q  e+(h)      
G------------------|-----------|-----------|-----------|-----------|----
D------------------|-----------|-----0+(0)-|-----------|-----0+(0)-|----
A---5--5-----------|-----3+(3)-|--0--------|-----3+(3)-|--0--------|----
E------------0--2--|--3--------|-----------|--3--------|-----------|----
B---------3--------|-----------|-----------|-----------|-----------|----
                                                                        

    q  q  e  e  e  e   +(q) e  e  e  e  e  e     q  q  e  e  e  e       
G---------------------|-----------------------|--------------r-----|----
D---------------------|-----------------------|--------------e-----|----
A---------------------|-----5--5--------------|--0--0--0--2--s--3--|----
E---3--3--3--3--5-----|--------------0--3--0--|--------------t-----|----
B------------------3--|+(3)-------3-----------|--------------------|----
                                                                        

  +(e) q  e  e  e  e  e     q  q  e  e  e  e   +(q) e  e  e  e  e  e    
G------------------------|--------------------|-------------------------
D------------------------|--------------------|-------------------------
A-+(3)-3-----5-----------|--------------------|-----5--5----------------
E---------3--------0--2--|--3--3--3--3--5-----|--------------0--3-------
B---------------3--------|-----------------3--|+(3)-------3--------3----
                                                                        

       q  q  e  e  e  e   +(e) e  e  e  e  e  e  s  s     Q  e+(h)      
G---|--------------r-----|-----------------------------|-----------|----
D---|--------------e-----|-----------------------------|-----------|----
A---|--0--0--0--2--s--3--|+(3)-3--3-----5--5-----------|-----3--3--|----
E---|--------------t-----|-----------3-----------0--2--|--3--------|----
B---|--------------------|--------------------3--------|-----------|----
                                                                        

    Q  e+(h)    w   +(w)                                                
G------------|-----|-----||---------------------------------------------
D------0--0--|-----|-----||---------------------------------------------
A---0--------|-----|-----||---------------------------------------------
E------------|--3--|+(3)-||---------------------------------------------
B------------|-----|-----||---------------------------------------------
                                                                        



==                       TABLATURE EXPLANATION                        ==

----------                ----------                ----t---
----5h8--- Hammeron       ----(8)--- Ghost          ----6--- Tap
----------                ---------- Note           --------
----5p8--- Pulloff        ----------                --------

----------                ----------                -----p--
----5/8--- Slide Up       -----x---- Dead           -----7-- Pop
----------                ---------- Note           --s-----
----5\8--- Slide Down     ----------                --5----- Slap 

----------                ||------|| Repeat         --------
----5~~~-- Vibrato        ||*----*||                ---5^--- Bend
----------                ||*----*||                --------
----5+(5)- tie            ||------||                --------

----------                ----------                --------
-4:------- Time           ----------                --------
-4:------- Signature      ----------                --------
----------                ----------                --------

Rhythm:
  w = whole note            W = dotted whole
  h = half note             H = dotted half
  q = quarter note          Q = dotted quarter
  e = eighth note           E = dotted eighth
  s = sixteenth note        S = dotted sixteenth
  t = 32nd note             T = dotted 32nd
  x = 64th note             X = dotted 64th
  ^ = triplet

==               Created with BUCKET O' TAB for Windows               ==





Comments


Popular Bad Company tabs & chords
Feel Like Makin' Love Bass Tabs
Shooting Star 2 Bass Tabs
Feel Like Making Love Chords
Rock And Roll Fantasy Chords
Seagull Chords
Every Thing I Need Tabs
Holy Water Intro Tabs
Rock And Roll Fantasy Tabs
Shooting Star Complete Tabs
Simple Man 1 Tabs


Song lyrics



↑ Back to top | Tablatures and chords are parodies/interpretations of the original songs. You may use it for private study, scholarship, research or language learning purposes only
© 2014 AZChords.com Contact us | Privacy policy | DMCA | Add/correct tabs | Request tabs | Top 50 tabs